Song name
# A B C D E F G H I J K L M N O P Q R S T U V W X Y Z

Dire Straits - Portobello Belle tab

-------------------------------------------------------------------------------
			     PORTOBELLO BELLE - Dire straits
-------------------------------------------------------------------------------
Tabbed by: metallhead
Email: homesticky@gmail.com

Tuning: E A D G B E


Gtr I (E A D G B E) - 'Acoustic'
Gtr II (E A D G B E) - 'Voice'
Gtr III (E A D G B E) - 'Piano'
Gtr IV (E A D G B E) - 'Lead'
Gtr V (Eb Ab Db Gb Bb Eb) - 'Drums'

  Q=100
 4/4
  Gtr I
  E E S S E E E E S S   E E S S E E E E S S
|---------------------|---------------------|
|-5-5-----5-5-5-5-----|-5-5-----5-5-5-5-----|
|-5-5-0---5-5-5-5-----|-5-5-0---5-5-5-5-----|
|-2-2-0---2-2-2-2-----|-2-2-0---2-2-2-2-----|
|-3-3-0---3-3-3-3-0---|-3-3-0---3-3-3-3-0---|
|---------------------|---------------------|
|
| Gtr II
| W                     W
|---------------------|---------------------|
|---------------------|---------------------|
|---------------------|---------------------|
|---------------------|---------------------|
|---------------------|---------------------|
|---------------------|---------------------|


  E E S S E E E E E   Q  Q  E  E  E  E
|---------------1-1-|-1--1--5----------|
|-5-5-----5-5-5-1-1-|-1--1-------------|
|-5-5-0---5-5-5-2-2-|-2--2-----9--9--9-|
|-2-2-0---2-2-2-3-3-|-3--3----10-10-10-|
|-3-3-0---3-3-3---0-|----------7--7--7-|
|-------------------|----------8--8--8-|
|
| E E E   E E E E E   W
|-------------------|------------------|
|-5-5-6---5-3-5-6-6-|------------------|
|-------------------|------------------|
|-------------------|------------------|
|-------------------|------------------|
|-------------------|------------------|


   E  E S S  E  E  E E E   Q  Q  E  E  E  E
|------------------------|-------5----------|
|--------------------6-6-|-6--6-------------|
|--9--9------9--9--9-5-5-|-5--5-----9--9--9-|
|-10-10-5---10-10-10-7-7-|-7--7----10-10-10-|
|--7--7-5----7--7--7-8-8-|-8--8-----7--7--7-|
|--8--8-5----8--8--8---5-|----------8--8--8-|
|
|  E  E E    E  E  E Q     W
|------------------------|------------------|
|-----5-3----3--1--1-1---|------------------|
|--5---------------------|------------------|
|------------------------|------------------|
|------------------------|------------------|
|------------------------|------------------|


   E  E S S  E  E  E E E   Q  Q  E  E  E  E
|------------------------|-------5----------|
|--------------------6-6-|-6--6-------------|
|--9--9------9--9--9-5-5-|-5--5-----9--9--9-|
|-10-10-5---10-10-10-7-7-|-7--7----10-10-10-|
|--7--7-5----7--7--7-8-8-|-8--8-----7--7--7-|
|--8--8-5----8--8--8---5-|----------8--8--8-|
|
|  E  E E    E  E  E E E   W
|--0--0-1----0-----------|------------------|
|---------------3--5-6-6-|------------------|
|------------------------|------------------|
|------------------------|------------------|
|------------------------|------------------|
|------------------------|------------------|


   E  E S S  E  E  E E E   Q  Q  E  E  E  E
|------------------------|-------5----------|
|--------------------6-6-|-6--6-------------|
|--9--9------9--9--9-5-5-|-5--5-----9--9--9-|
|-10-10-5---10-10-10-7-7-|-7--7----10-10-10-|
|--7--7-5----7--7--7-8-8-|-8--8-----7--7--7-|
|--8--8-5----8--8--8---5-|----------8--8--8-|
|
|  E  E E    E  E  E E E   W
|------------------------|------------------|
|--5--5-6----5--3--5-6-6-|------------------|
|------------------------|------------------|
|------------------------|------------------|
|------------------------|------------------|
|------------------------|------------------|


   E  E S S  E  E  E E E   Q  Q  E  E  E  E
|------------------------|-------5----------|
|--------------------6-6-|-6--6-------------|
|--9--9------9--9--9-5-5-|-5--5-----9--9--9-|
|-10-10-5---10-10-10-7-7-|-7--7----10-10-10-|
|--7--7-5----7--7--7-8-8-|-8--8-----7--7--7-|
|--8--8-5----8--8--8---5-|----------8--8--8-|
|
|                          Gtr V
|  E  E E    E  E  E Q     Q  Q  Q     Q
|------------------------|------------------|
|-----5-5----5--5--6-6---|------------------|
|--5---------------------|------------------|
|------------------------|------------------|
|------------------------|-1-----1----------|
|------------------------|----0--------0----|


   E  E S S  E  E  E E E   Q  Q  E  E  E  E
|------------------------|-------5----------|
|--------------------6-6-|-6--6-------------|
|--9--9------9--9--9-5-5-|-5--5-----9--9--9-|
|-10-10-5---10-10-10-7-7-|-7--7----10-10-10-|
|--7--7-5----7--7--7-8-8-|-8--8-----7--7--7-|
|--8--8-5----8--8--8---5-|----------8--8--8-|
|
| Gtr II
|  E  E E    E  E  E E E   W
|------------------------|------------------|
|--5--5-6----5--3--5-6-6-|------------------|
|------------------------|------------------|
|------------------------|------------------|
|------------------------|------------------|
|------------------------|------------------|
|
| Gtr V
|  Q    Q       Q    Q     Q  Q  Q     Q
|------------------------|------------------|
|------------------------|------------------|
|------------------------|------------------|
|------------------------|------------------|
|--1------------1--------|-1-----1----------|
|-------0------------0---|----0--------0----|


   E  E S S  E  E  E E E   Q  Q  E  E  E  E
|------------------------|-------5----------|
|--------------------6-6-|-6--6-------------|
|--9--9------9--9--9-5-5-|-5--5-----9--9--9-|
|-10-10-5---10-10-10-7-7-|-7--7----10-10-10-|
|--7--7-5----7--7--7-8-8-|-8--8-----7--7--7-|
|--8--8-5----8--8--8---5-|----------8--8--8-|
|
|  E  E E    E  E  E E E   W
|------------------------|------------------|
|--5--5-6----5--3--5-6-6-|------------------|
|------------------------|------------------|
|------------------------|------------------|
|------------------------|------------------|
|------------------------|------------------|
|
|  Q    Q       Q    Q     Q  Q  Q     Q
|------------------------|------------------|
|------------------------|------------------|
|------------------------|------------------|
|------------------------|------------------|
|--1------------1--------|-1-----1----------|
|-------0------------0---|----0--------0----|


   E  E S S  E  E  E E E   Q  Q  E  E  E  E
|------------------------|-------5----------|
|--------------------6-6-|-6--6-------------|
|--9--9------9--9--9-5-5-|-5--5-----9--9--9-|
|-10-10-5---10-10-10-7-7-|-7--7----10-10-10-|
|--7--7-5----7--7--7-8-8-|-8--8-----7--7--7-|
|--8--8-5----8--8--8---5-|----------8--8--8-|
|
|  E  E E    E  E  E Q     W
|------------------------|------------------|
|--5--5-3----3--1--1-1---|------------------|
|------------------------|------------------|
|------------------------|------------------|
|------------------------|------------------|
|------------------------|------------------|
|
|  Q    Q       Q    Q     Q  Q  Q     Q
|------------------------|------------------|
|------------------------|------------------|
|------------------------|------------------|
|------------------------|------------------|
|--1------------1--------|-1-----1----------|
|-------0------------0---|----0--------0----|


  E E S S E E E E E   E E E E E E  E  E
|---------5-5-5-5---|---5---------------|
|-6-6-5---6-6-6-6-6-|-6-6-6-6-6-6-------|
|-5-5-5---5-5-5-5-5-|-5-5-5-5-5-5--9--9-|
|-7-7-5---7-7-7-7-7-|-7-7-7-7-7-7-10-10-|
|-8-8-5---8-8-8-8-8-|-8-8-8-8-8-8--7--7-|
|-------------------|---------5----8--8-|
|
| E E E   E E E E E   E E E E E E  E  E
|-5-5-5---5-5-5-5-5-|-5-5-5-5-5-3-----3-|
|-------------------|--------------5----|
|-------------------|-------------------|
|-------------------|-------------------|
|-------------------|-------------------|
|-------------------|-------------------|
|
| Q   Q     Q   Q     Q   Q   Q    Q
|-------------------|-------------------|
|-------------------|-------------------|
|-------------------|-------------------|
|-------------------|-------------------|
|-1---------1-------|-1-------1---------|
|-----0---------0---|-----0--------0----|


  S S  E  E  E  E  E  E  E   S S  E  E  E E E S S E
|--------------------------|----------------------5-|
|-5------------------------|--------------6-6-----6-|
|-5----9--9--9--9--9--9--9-|------9--9--9-5-5-----5-|
|-0---10-10-10-10-10-10-10-|-----10-10-10-7-7-----7-|
|-0----7--7--7--7--7--7--7-|-5----7--7--7-8-8-5---8-|
|------8--8--8--8--8--8--8-|------8--8--8-----------|
|
| W                          H            E E E   E
|--------------------------|----------------5-5---5-|
|--------------------------|--------------1---------|
|--------------------------|------------------------|
|--------------------------|------------------------|
|--------------------------|------------------------|
|--------------------------|------------------------|
|
| Q       Q     Q     Q      Q       Q    Q   Q
|--------------------------|------------------------|
|--------------------------|------------------------|
|--------------------------|------------------------|
|--------------------------|------------------------|
|-1-------------1----------|-1------------1---------|
|---------0-----------0----|---------0--------0-----|


  E E E E E E E E   E E  E  E S S  E  E  E
|-5-5-----5-5-5---|------------------------|
|-6-6-6-6-6-6-6-6-|-6-6--------------------|
|-5-5-5-5-5-5-5-5-|-5-5--9--9------9--9--9-|
|-7-7-7-7-7-7-7-7-|-7-7-10-10-----10-10-10-|
|-8-8-8-8-8-8-8-8-|-8-8--7--7------7--7--7-|
|-----------------|------8--8-5----8--8--8-|
|
| E E E E E E E E   E E  E  E E    E  E  E
|-5-5-5-5-5-5-5-5-|-5-5--5--5-5----3-----3-|
|-----------------|-------------------5----|
|-----------------|------------------------|
|-----------------|------------------------|
|-----------------|------------------------|
|-----------------|------------------------|
|
| Q   Q   Q   Q     Q    Q    Q       Q
|-----------------|------------------------|
|-----------------|------------------------|
|-----------------|------------------------|
|-----------------|------------------------|
|-1-------1-------|-1---------1------------|
|-----0-------0---|------0------------0----|


  E S S E E E E E E   S S E Q  Q   E  E
|-------------------|-------------------|
|---------------6-6-|-------6--6--------|
|-7-----7-7-7-7-5-5-|-------5--5---9--9-|
|-8-----8-8-8-8-7-7-|-------7--7--10-10-|
|-8-----8-8-8-8-8-8-|-5-----8--8---7--7-|
|-6-5---6-6-6-6-----|--------------8--8-|
|
| E E   E E E E E E   Q     Q  Q   Q
|-------------------|----------3--------|
|-3-1---3-1-3-1-3-3-|-3------------5----|
|-------------------|-------------------|
|-------------------|-------------------|
|-------------------|-------------------|
|-------------------|-------------------|
|
| Gtr III
| E E   E E E E E E   Q     Q  Q   E  E
|-------------------|-------------------|
|-------------------|-------------------|
|-------------------|-------------------|
|-------------------|-------------------|
|-1-1---1-1-1-1-----|--------------3--3-|
|---------------1-1-|-1-----1--1--------|


  S S  E  E  E  E  E  E  E   E S S E E E E E E
|--------------------------|-------------------|
|--------------------------|---------------6-6-|
|------9--9--9--9--9--9--9-|-7-----7-7-7-7-5-5-|
|-----10-10-10-10-10-10-10-|-8-----8-8-8-8-7-7-|
|------7--7--7--7--7--7--7-|-8-----8-8-8-8-8-8-|
|-5----8--8--8--8--8--8--8-|-6-5---6-6-6-6-----|
|
| W                          E E   E E E E E E
|--------------------------|-------------------|
|--------------------------|-3-1---3-1-3-1-3-1-|
|--------------------------|-------------------|
|--------------------------|-------------------|
|--------------------------|-------------------|
|--------------------------|-------------------|
|
| E    E  E  E  E  E  E  E   E E   E E E E E E
|--------------------------|-------------------|
|--------------------------|-------------------|
|--------------------------|-------------------|
|--------------------------|-------------------|
|-3----3--3--3--3--3--3--3-|-1-1---1-1-1-1-----|
|--------------------------|---------------1-1-|


  S S E Q   Q    E  E    E  E S S  E  E  E  E S S    E  E S S  E  E  E  E S S
|---------------------|---------------------------|----------------------------|
|-------6---6---------|---------------------------|----------------------------|
|-------5---5----9--9-|--9--9------9--9--9--9-----|--9--9------9--9--9--9------|
|-------7---7---10-10-|-10-10-5---10-10-10-10-----|-10-10-5---10-10-10-10------|
|-5-----8---8----7--7-|--7--7-5----7--7--7--7-----|--7--7-5----7--7--7--7------|
|----------------8--8-|--8--8-5----8--8--8--8-5---|--8--8-5----8--8--8--8-5----|
|
| E   E E E E E  E  E    W                           W
|---------------------|---------------------------|----------------------------|
|-3---1-3-1-3-1--3--1-|---------------------------|----------------------------|
|---------------------|---------------------------|----------------------------|
|---------------------|---------------------------|----------------------------|
|---------------------|---------------------------|----------------------------|
|---------------------|---------------------------|----------------------------|
|
| Q     Q   Q    E  E    E  E E    E  E  E  E E      E  E E    E  E  E  E E
|---------------------|---------------------------|----------------------------|
|---------------------|---------------------------|----------------------------|
|---------------------|---------------------------|----------------------------|
|---------------------|---------------------------|----------------------------|
|----------------3--3-|--3--3-3----3--3--3--3-3---|--3--3-3----3--3--3--3-3----|
|-1-----1---1---------|---------------------------|----------------------------|


   E  E S S  E  E  E E E   Q  Q  E  E  E  E
|------------------------|-------5----------|
|--------------------6-6-|-6--6-------------|
|--9--9------9--9--9-5-5-|-5--5-----9--9--9-|
|-10-10-5---10-10-10-7-7-|-7--7----10-10-10-|
|--7--7-5----7--7--7-8-8-|-8--8-----7--7--7-|
|--8--8-5----8--8--8---5-|----------8--8--8-|
|
|  E  E E    E  E  E E E   W
|--0--0-0----0--0--0-1-1-|------------------|
|------------------------|------------------|
|------------------------|------------------|
|------------------------|------------------|
|------------------------|------------------|
|------------------------|------------------|


   E  E S S  E  E  E E E   Q  Q  E  E  E  E
|------------------------|-------5----------|
|--------------------6-6-|-6--6-------------|
|--9--9------9--9--9-5-5-|-5--5-----9--9--9-|
|-10-10-5---10-10-10-7-7-|-7--7----10-10-10-|
|--7--7-5----7--7--7-8-8-|-8--8-----7--7--7-|
|--8--8-5----8--8--8---5-|----------8--8--8-|
|
|  E  E E    E  E  E Q     W
|-----0------------------|------------------|
|--1----3----3--1--1-1---|------------------|
|------------------------|------------------|
|------------------------|------------------|
|------------------------|------------------|
|------------------------|------------------|


   E  E S S  E  E  E E E   Q  Q  E  E  E  E
|------------------------|-------5----------|
|--------------------6-6-|-6--6-------------|
|--9--9------9--9--9-5-5-|-5--5-----9--9--9-|
|-10-10-5---10-10-10-7-7-|-7--7----10-10-10-|
|--7--7-5----7--7--7-8-8-|-8--8-----7--7--7-|
|--8--8-5----8--8--8---5-|----------8--8--8-|
|
|  E  E E    E  E  E E E   W
|--0--0-1----0-----------|------------------|
|---------------3--5-6-6-|------------------|
|------------------------|------------------|
|------------------------|------------------|
|------------------------|------------------|
|------------------------|------------------|


   E  E S S  E  E  E E E   Q  Q  E  E  E  E
|------------------------|-------5----------|
|--------------------6-6-|-6--6-------------|
|--9--9------9--9--9-5-5-|-5--5-----9--9--9-|
|-10-10-5---10-10-10-7-7-|-7--7----10-10-10-|
|--7--7-5----7--7--7-8-8-|-8--8-----7--7--7-|
|--8--8-5----8--8--8---5-|----------8--8--8-|
|
|  E  E E    E  E  E E E   W
|------------------------|------------------|
|--5--5-6----5--3--5-6-6-|------------------|
|------------------------|------------------|
|------------------------|------------------|
|------------------------|------------------|
|------------------------|------------------|


   E  E S S  E  E  E E E   Q  Q  E  E  E  E
|------------------------|-------5----------|
|--------------------6-6-|-6--6-------------|
|--9--9------9--9--9-5-5-|-5--5-----9--9--9-|
|-10-10-5---10-10-10-7-7-|-7--7----10-10-10-|
|--7--7-5----7--7--7-8-8-|-8--8-----7--7--7-|
|--8--8-5----8--8--8---5-|----------8--8--8-|
|
|  E  E E    E  E  E Q     W
|------------------------|------------------|
|-----5-5----5--5--6-6---|------------------|
|--5---------------------|------------------|
|------------------------|------------------|
|------------------------|------------------|
|------------------------|------------------|
|
| Gtr V
|  W                       Q  Q  Q     Q
|------------------------|------------------|
|------------------------|------------------|
|------------------------|------------------|
|------------------------|------------------|
|------------------------|-1-----1----------|
|------------------------|----0--------0----|


   E  E S S  E  E  E E E   Q  Q  E  E  E  E
|------------------------|-------5----------|
|--------------------6-6-|-6--6-------------|
|--9--9------9--9--9-5-5-|-5--5-----9--9--9-|
|-10-10-5---10-10-10-7-7-|-7--7----10-10-10-|
|--7--7-5----7--7--7-8-8-|-8--8-----7--7--7-|
|--8--8-5----8--8--8---5-|----------8--8--8-|
|
|  E  E E    E  E  E E E   W
|------------------------|------------------|
|--5--5-6----5--3--5-6-6-|------------------|
|------------------------|------------------|
|------------------------|------------------|
|------------------------|------------------|
|------------------------|------------------|
|
|  Q    Q       Q    Q     Q  Q  Q     Q
|------------------------|------------------|
|------------------------|------------------|
|------------------------|------------------|
|------------------------|------------------|
|--1------------1--------|-1-----1----------|
|-------0------------0---|----0--------0----|


   E  E S S  E  E  E E E   Q  Q  E  E  E  E
|------------------------|-------5----------|
|--------------------6-6-|-6--6-------------|
|--9--9------9--9--9-5-5-|-5--5-----9--9--9-|
|-10-10-5---10-10-10-7-7-|-7--7----10-10-10-|
|--7--7-5----7--7--7-8-8-|-8--8-----7--7--7-|
|--8--8-5----8--8--8---5-|----------8--8--8-|
|
|  E  E E    E  E  E E E   W
|------------------------|------------------|
|--5--5-6----5--3--5-6-6-|------------------|
|------------------------|------------------|
|------------------------|------------------|
|------------------------|------------------|
|------------------------|------------------|
|
|  Q    Q       Q    Q     Q  Q  Q     Q
|------------------------|------------------|
|------------------------|------------------|
|------------------------|------------------|
|------------------------|------------------|
|--1------------1--------|-1-----1----------|
|-------0------------0---|----0--------0----|


   E  E S S  E  E  E E E   Q  Q  E  E  E  E
|------------------------|-------5----------|
|--------------------6-6-|-6--6-------------|
|--9--9------9--9--9-5-5-|-5--5-----9--9--9-|
|-10-10-5---10-10-10-7-7-|-7--7----10-10-10-|
|--7--7-5----7--7--7-8-8-|-8--8-----7--7--7-|
|--8--8-5----8--8--8---5-|----------8--8--8-|
|
|  E  E E    E  E  E Q     W
|------------------------|------------------|
|--5--5-3----3--1--1-1---|------------------|
|------------------------|------------------|
|------------------------|------------------|
|------------------------|------------------|
|------------------------|------------------|
|
|  Q    Q       Q    Q     Q  Q  Q     Q
|------------------------|------------------|
|------------------------|------------------|
|------------------------|------------------|
|------------------------|------------------|
|--1------------1--------|-1-----1----------|
|-------0------------0---|----0--------0----|


  E E S S E E E E E   E E E E E E  E  E
|---------5-5-5-5---|---5---------------|
|-6-6-5---6-6-6-6-6-|-6-6-6-6-6-6-------|
|-5-5-5---5-5-5-5-5-|-5-5-5-5-5-5--9--9-|
|-7-7-5---7-7-7-7-7-|-7-7-7-7-7-7-10-10-|
|-8-8-5---8-8-8-8-8-|-8-8-8-8-8-8--7--7-|
|-------------------|---------5----8--8-|
|
| E E E   E E E E E   E E E E E E  E  E
|-5-5-5---5-5-5-5-5-|-5-5-5-5-5-3-----3-|
|-------------------|--------------5----|
|-------------------|-------------------|
|-------------------|-------------------|
|-------------------|-------------------|
|-------------------|-------------------|
|
| Q   Q     Q   Q     Q   Q   Q    Q
|-------------------|-------------------|
|-------------------|-------------------|
|-------------------|-------------------|
|-------------------|-------------------|
|-1---------1-------|-1-------1---------|
|-----0---------0---|-----0--------0----|


  S S  E  E  E  E  E  E  E   S S  E  E  E E E S S E
|--------------------------|----------------------5-|
|-5------------------------|--------------6-6-----6-|
|-5----9--9--9--9--9--9--9-|------9--9--9-5-5-----5-|
|-0---10-10-10-10-10-10-10-|-----10-10-10-7-7-----7-|
|-0----7--7--7--7--7--7--7-|-5----7--7--7-8-8-5---8-|
|------8--8--8--8--8--8--8-|------8--8--8-----------|
|
|                            Gtr IV
| W                          H            E E E   E
|--------------------------|----------------5-5---5-|
|--------------------------|--------------1---------|
|--------------------------|------------------------|
|--------------------------|------------------------|
|--------------------------|------------------------|
|--------------------------|------------------------|
|
| Q       Q     Q     Q      Q       Q    Q   Q
|--------------------------|------------------------|
|--------------------------|------------------------|
|--------------------------|------------------------|
|--------------------------|------------------------|
|-1-------------1----------|-1------------1---------|
|---------0-----------0----|---------0--------0-----|


  E E E E E E E E   E E  E  E S S  E  E  E
|-5-5-----5-5-5---|------------------------|
|-6-6-6-6-6-6-6-6-|-6-6--------------------|
|-5-5-5-5-5-5-5-5-|-5-5--9--9------9--9--9-|
|-7-7-7-7-7-7-7-7-|-7-7-10-10-----10-10-10-|
|-8-8-8-8-8-8-8-8-|-8-8--7--7------7--7--7-|
|-----------------|------8--8-5----8--8--8-|
|
| Gtr III
| W                 W
|-----------------|------------------------|
|-----------------|------------------------|
|-----------------|------------------------|
|-----------------|------------------------|
|-----------------|------------------------|
|-----------------|------------------------|
|
| Gtr IV
| E E E E E E E E   E E  E  E E    E  E  E
|-5-5-5-5-5-5-5-5-|-5-5--5--5-5----3-----3-|
|-----------------|-------------------5----|
|-----------------|------------------------|
|-----------------|------------------------|
|-----------------|------------------------|
|-----------------|------------------------|


  E S S E E E E E E   S S E Q  Q   E  E
|-------------------|--------------------|
|---------------6-6-|-------6--6---------|
|-7-----7-7-7-7-5-5-|-------5--5---9--9--|
|-8-----8-8-8-8-7-7-|-------7--7--10-10--|
|-8-----8-8-8-8-8-8-|-5-----8--8---7--7--|
|-6-5---6-6-6-6-----|--------------8--8--|
|
| E E   E E E E E E   Q     Q  Q   E  E
|-------------------|--------------------|
|-------------------|--------------------|
|-------------------|--------------------|
|-------------------|--------------------|
|-1-1---1-1-1-1-----|--------------3--3--|
|---------------1-1-|-1-----1--1---------|
|
| Gtr II
| E E   E E E E E E   Q     Q  Q   Q
|-------------------|----------3---------|
|-3-1---3-1-3-1-3-3-|-3------------5-----|
|-------------------|--------------------|
|-------------------|--------------------|
|-------------------|--------------------|
|-------------------|--------------------|


  S S  E  E  E  E  E  E  E   E S S E E E E E E
|--------------------------|-------------------|
|--------------------------|---------------6-6-|
|------9--9--9--9--9--9--9-|-7-----7-7-7-7-5-5-|
|-----10-10-10-10-10-10-10-|-8-----8-8-8-8-7-7-|
|------7--7--7--7--7--7--7-|-8-----8-8-8-8-8-8-|
|-5----8--8--8--8--8--8--8-|-6-5---6-6-6-6-----|
|
| Gtr II
| W                          W
|--------------------------|-------------------|
|--------------------------|-------------------|
|--------------------------|-------------------|
|--------------------------|-------------------|
|--------------------------|-------------------|
|--------------------------|-------------------|
|
| Gtr III
| E    E  E  E  E  E  E  E   E E   E E E E E E
|--------------------------|-------------------|
|--------------------------|-------------------|
|--------------------------|-------------------|
|--------------------------|-------------------|
|-3----3--3--3--3--3--3--3-|-1-1---1-1-1-1-----|
|--------------------------|---------------1-1-|


  H       +Q    +S  S E    E  E S S  E  E  E  E S S
|-----------------------|----------------------------|
|-6-------(6)---(6)-----|----------------------------|
|-5-------(5)---(5)-----|--9--9------9--9--9--9------|
|-7-------(7)---(7)-----|-10-10-5---10-10-10-10------|
|-8-------(8)---(8)-----|--7--7-5----7--7--7--7------|
|-5-------(5)---(5)-----|--8--8-5----8--8--8--8-5----|
|
| E E E E  E  E  E    E    W
|-----------------------|----------------------------|
|-3-1-3-1--3--1--3----1-|----------------------------|
|-----------------------|----------------------------|
|-----------------------|----------------------------|
|-----------------------|----------------------------|
|-----------------------|----------------------------|
|
| W                        E  E E    E  E  E  E E
|-----------------------|----------------------------|
|-----------------------|----------------------------|
|-----------------------|----------------------------|
|-----------------------|----------------------------|
|-----------------------|--3--3-3----3--3--3--3-3----|
|-1---------------------|----------------------------|


   E  E S S  E  E  E  E S S    E  E S S  E  E  E E E
|---------------------------|------------------------|
|---------------------------|--------------------6-6-|
|--9--9------9--9--9--9-----|--9--9------9--9--9-5-5-|
|-10-10-5---10-10-10-10-----|-10-10-5---10-10-10-7-7-|
|--7--7-5----7--7--7--7-----|--7--7-5----7--7--7-8-8-|
|--8--8-5----8--8--8--8-5---|--8--8-5----8--8--8---5-|
|
| Gtr III                     Gtr II
|  E  E E    E  E  E  E E      E  E E    E  E  E E E
|---------------------------|--0--0-0----0--0--0-1-1-|
|---------------------------|------------------------|
|---------------------------|------------------------|
|---------------------------|------------------------|
|--3--3-3----3--3--3--3-3---|------------------------|
|---------------------------|------------------------|
|
| Gtr V
|  Q    Q       Q     Q        W
|---------------------------|------------------------|
|---------------------------|------------------------|
|---------------------------|------------------------|
|---------------------------|------------------------|
|--1------------1-----------|------------------------|
|-------0-------------0-----|------------------------|


  Q  Q  E  E  E  E    E  E S S  E  E  E E E
|-------5----------|------------------------|
|-6--6-------------|--------------------6-6-|
|-5--5-----9--9--9-|--9--9------9--9--9-5-5-|
|-7--7----10-10-10-|-10-10-5---10-10-10-7-7-|
|-8--8-----7--7--7-|--7--7-5----7--7--7-8-8-|
|----------8--8--8-|--8--8-5----8--8--8---5-|
|
| W                   E  E E    E  E  E Q
|------------------|-----0------------------|
|------------------|--1----3----3--1--1-1---|
|------------------|------------------------|
|------------------|------------------------|
|------------------|------------------------|
|------------------|------------------------|
|
| W                   W
|------------------|------------------------|
|------------------|------------------------|
|------------------|------------------------|
|------------------|------------------------|
|------------------|------------------------|
|------------------|------------------------|


  Q  Q  E  E  E  E    E  E S S  E  E  E E E
|-------5----------|------------------------|
|-6--6-------------|--------------------6-6-|
|-5--5-----9--9--9-|--9--9------9--9--9-5-5-|
|-7--7----10-10-10-|-10-10-5---10-10-10-7-7-|
|-8--8-----7--7--7-|--7--7-5----7--7--7-8-8-|
|----------8--8--8-|--8--8-5----8--8--8---5-|
|
| W                   E  E E    E  E  E E E
|------------------|--0--0-1----0-----------|
|------------------|---------------3--5-6-6-|
|------------------|------------------------|
|------------------|------------------------|
|------------------|------------------------|
|------------------|------------------------|


  Q  Q  E  E  E  E    E  E S S  E  E  E E E
|-------5----------|------------------------|
|-6--6-------------|--------------------6-6-|
|-5--5-----9--9--9-|--9--9------9--9--9-5-5-|
|-7--7----10-10-10-|-10-10-5---10-10-10-7-7-|
|-8--8-----7--7--7-|--7--7-5----7--7--7-8-8-|
|----------8--8--8-|--8--8-5----8--8--8---5-|
|
| W                   E  E E    E  E  E E E
|------------------|------------------------|
|------------------|--5--5-6----5--3--5-6-6-|
|------------------|------------------------|
|------------------|------------------------|
|------------------|------------------------|
|------------------|------------------------|


  Q  Q  E  E  E  E    E  E S S  E  E  E E E
|-------5----------|------------------------|
|-6--6-------------|--------------------6-6-|
|-5--5-----9--9--9-|--9--9------9--9--9-5-5-|
|-7--7----10-10-10-|-10-10-5---10-10-10-7-7-|
|-8--8-----7--7--7-|--7--7-5----7--7--7-8-8-|
|----------8--8--8-|--8--8-5----8--8--8---5-|
|
| W                   E  E E    E  E  E Q
|------------------|------------------------|
|------------------|-----5-5----5--5--6-6---|
|------------------|--5---------------------|
|------------------|------------------------|
|------------------|------------------------|
|------------------|------------------------|
|
| Gtr V
| W                   W
|------------------|------------------------|
|------------------|------------------------|
|------------------|------------------------|
|------------------|------------------------|
|------------------|------------------------|
|------------------|------------------------|


  Q  Q  E  E  E  E    E  E S S  E  E  E E E
|-------5----------|------------------------|
|-6--6-------------|--------------------6-6-|
|-5--5-----9--9--9-|--9--9------9--9--9-5-5-|
|-7--7----10-10-10-|-10-10-5---10-10-10-7-7-|
|-8--8-----7--7--7-|--7--7-5----7--7--7-8-8-|
|----------8--8--8-|--8--8-5----8--8--8---5-|
|
| W                   E  E E    E  E  E E E
|------------------|------------------------|
|------------------|--5--5-6----5--3--5-6-6-|
|------------------|------------------------|
|------------------|------------------------|
|------------------|------------------------|
|------------------|------------------------|
|
| Q  Q  Q     Q       Q    Q       Q    Q
|------------------|------------------------|
|------------------|------------------------|
|------------------|------------------------|
|------------------|------------------------|
|-1-----1----------|--1------------1--------|
|----0--------0----|-------0------------0---|


  Q  Q  E  E  E  E    E  E S S  E  E  E E E
|-------5----------|------------------------|
|-6--6-------------|--------------------6-6-|
|-5--5-----9--9--9-|--9--9------9--9--9-5-5-|
|-7--7----10-10-10-|-10-10-5---10-10-10-7-7-|
|-8--8-----7--7--7-|--7--7-5----7--7--7-8-8-|
|----------8--8--8-|--8--8-5----8--8--8---5-|
|
| W                   E  E E    E  E  E E E
|------------------|------------------------|
|------------------|--5--5-6----5--3--5-6-6-|
|------------------|------------------------|
|------------------|------------------------|
|------------------|------------------------|
|------------------|------------------------|
|
| Q  Q  Q     Q       Q    Q       Q    Q
|------------------|------------------------|
|------------------|------------------------|
|------------------|------------------------|
|------------------|------------------------|
|-1-----1----------|--1------------1--------|
|----0--------0----|-------0------------0---|


  Q  Q  E  E  E  E    E  E S S  E  E  E E E
|-------5----------|------------------------|
|-6--6-------------|--------------------6-6-|
|-5--5-----9--9--9-|--9--9------9--9--9-5-5-|
|-7--7----10-10-10-|-10-10-5---10-10-10-7-7-|
|-8--8-----7--7--7-|--7--7-5----7--7--7-8-8-|
|----------8--8--8-|--8--8-5----8--8--8---5-|
|
| W                   E  E E    E  E  E Q
|------------------|------------------------|
|------------------|--5--5-3----3--1--1-1---|
|------------------|------------------------|
|------------------|------------------------|
|------------------|------------------------|
|------------------|------------------------|
|
| Q  Q  Q     Q       Q    Q       Q    Q
|------------------|------------------------|
|------------------|------------------------|
|------------------|------------------------|
|------------------|------------------------|
|-1-----1----------|--1------------1--------|
|----0--------0----|-------0------------0---|


  Q  Q  E  E  E  E   E E S S E E E E E
|-------5----------|---------5-5-5-5---|
|-6--6-------------|-6-6-5---6-6-6-6-6-|
|-5--5-----9--9--9-|-5-5-5---5-5-5-5-5-|
|-7--7----10-10-10-|-7-7-5---7-7-7-7-7-|
|-8--8-----7--7--7-|-8-8-5---8-8-8-8-8-|
|----------8--8--8-|-------------------|
|
| W                  E E E   E E E E E
|------------------|-5-5-5---5-5-5-5-5-|
|------------------|-------------------|
|------------------|-------------------|
|------------------|-------------------|
|------------------|-------------------|
|------------------|-------------------|
|
| Q  Q  Q     Q      Q   Q     Q   Q
|------------------|-------------------|
|------------------|-------------------|
|------------------|-------------------|
|------------------|-------------------|
|-1-----1----------|-1---------1-------|
|----0--------0----|-----0---------0---|


  E E E E E E  E  E   S S  E  E  E  E  E  E  E
|---5---------------|--------------------------|
|-6-6-6-6-6-6-------|-5------------------------|
|-5-5-5-5-5-5--9--9-|-5----9--9--9--9--9--9--9-|
|-7-7-7-7-7-7-10-10-|-0---10-10-10-10-10-10-10-|
|-8-8-8-8-8-8--7--7-|-0----7--7--7--7--7--7--7-|
|---------5----8--8-|------8--8--8--8--8--8--8-|
|
| E E E E E E  E  E   W
|-5-5-5-5-5-3-----3-|--------------------------|
|--------------5----|--------------------------|
|-------------------|--------------------------|
|-------------------|--------------------------|
|-------------------|--------------------------|
|-------------------|--------------------------|
|
| Q   Q   Q    Q      Q       Q     Q     Q
|-------------------|--------------------------|
|-------------------|--------------------------|
|-------------------|--------------------------|
|-------------------|--------------------------|
|-1-------1---------|-1-------------1----------|
|-----0--------0----|---------0-----------0----|


  S S  E  E  E E E S S E   E E E E E E E E
|----------------------5-|-5-5-----5-5-5---|
|--------------6-6-----6-|-6-6-6-6-6-6-6-6-|
|------9--9--9-5-5-----5-|-5-5-5-5-5-5-5-5-|
|-----10-10-10-7-7-----7-|-7-7-7-7-7-7-7-7-|
|-5----7--7--7-8-8-5---8-|-8-8-8-8-8-8-8-8-|
|------8--8--8-----------|-----------------|
|
| Gtr III
| W                        W
|------------------------|-----------------|
|------------------------|-----------------|
|------------------------|-----------------|
|------------------------|-----------------|
|------------------------|-----------------|
|------------------------|-----------------|
|
| Gtr IV
| H            E E E   E   E E E E E E E E
|----------------5-5---5-|-5-5-5-5-5-5-5-5-|
|--------------1---------|-----------------|
|------------------------|-----------------|
|------------------------|-----------------|
|------------------------|-----------------|
|------------------------|-----------------|


  E E  E  E S S  E  E  E   E S S E E E E E E
|------------------------|-------------------|
|-6-6--------------------|---------------6-6-|
|-5-5--9--9------9--9--9-|-7-----7-7-7-7-5-5-|
|-7-7-10-10-----10-10-10-|-8-----8-8-8-8-7-7-|
|-8-8--7--7------7--7--7-|-8-----8-8-8-8-8-8-|
|------8--8-5----8--8--8-|-6-5---6-6-6-6-----|
|
| W                        E E   E E E E E E
|------------------------|-------------------|
|------------------------|-------------------|
|------------------------|-------------------|
|------------------------|-------------------|
|------------------------|-1-1---1-1-1-1-----|
|------------------------|---------------1-1-|
|
|                          Gtr II
| E E  E  E E    E  E  E   E E   E E E E E E
|-5-5--5--5-5----3-----3-|-------------------|
|-------------------5----|-3-1---3-1-3-1-3-3-|
|------------------------|-------------------|
|------------------------|-------------------|
|------------------------|-------------------|
|------------------------|-------------------|


  S S E Q  Q   E  E   S S  E  E  E  E  E  E  E
|-------------------|--------------------------|
|-------6--6--------|--------------------------|
|-------5--5---9--9-|------9--9--9--9--9--9--9-|
|-------7--7--10-10-|-----10-10-10-10-10-10-10-|
|-5-----8--8---7--7-|------7--7--7--7--7--7--7-|
|--------------8--8-|-5----8--8--8--8--8--8--8-|
|
| Gtr II
| Q     Q  Q   Q      W
|----------3--------|--------------------------|
|-3------------5----|--------------------------|
|-------------------|--------------------------|
|-------------------|--------------------------|
|-------------------|--------------------------|
|-------------------|--------------------------|
|
| Gtr III
| Q     Q  Q   E  E   E    E  E  E  E  E  E  E
|-------------------|--------------------------|
|-------------------|--------------------------|
|-------------------|--------------------------|
|-------------------|--------------------------|
|--------------3--3-|-3----3--3--3--3--3--3--3-|
|-1-----1--1--------|--------------------------|


  E S S E E E E E E   S S E Q   Q    E  E
|-------------------|---------------------|
|---------------6-6-|-------6---6---------|
|-7-----7-7-7-7-5-5-|-------5---5----9--9-|
|-8-----8-8-8-8-7-7-|-------7---7---10-10-|
|-8-----8-8-8-8-8-8-|-5-----8---8----7--7-|
|-6-5---6-6-6-6-----|----------------8--8-|
|
| W                   E   E E E E E  E  E
|-------------------|---------------------|
|-------------------|-3---1-3-1-3-1--3--1-|
|-------------------|---------------------|
|-------------------|---------------------|
|-------------------|---------------------|
|-------------------|---------------------|
|
| E E   E E E E E E   Q     Q   Q    E  E
|-------------------|---------------------|
|-------------------|---------------------|
|-------------------|---------------------|
|-------------------|---------------------|
|-1-1---1-1-1-1-----|----------------3--3-|
|---------------1-1-|-1-----1---1---------|


   E  E S S  E  E  E  E S S    E  E S S  E  E  E  E S S
|---------------------------|---------------------------|
|---------------------------|---------------------------|
|--9--9------9--9--9--9-----|--9--9------9--9--9--9-----|
|-10-10-5---10-10-10-10-----|-10-10-5---10-10-10-10-----|
|--7--7-5----7--7--7--7-----|--7--7-5----7--7--7--7-----|
|--8--8-5----8--8--8--8-5---|--8--8-5----8--8--8--8-5---|
|
|  W                           W
|---------------------------|---------------------------|
|--1------------------------|---------------------------|
|---------------------------|---------------------------|
|---------------------------|---------------------------|
|---------------------------|---------------------------|
|---------------------------|---------------------------|
|
|  E  E E    E  E  E  E E      E  E E    E  E  E  E E
|---------------------------|---------------------------|
|---------------------------|---------------------------|
|---------------------------|---------------------------|
|---------------------------|---------------------------|
|--3--3-3----3--3--3--3-3---|--3--3-3----3--3--3--3-3---|
|---------------------------|---------------------------|


   E  E S S  E  E  E E  E   Q   Q  E  E  E  E
|-------------------------|--------5-----------|
|--------------------6--6-|-6---6--------------|
|--9--9------9--9--9-5--5-|-5---5-----9--9--9--|
|-10-10-5---10-10-10-7--7-|-7---7----10-10-10--|
|--7--7-5----7--7--7-8--8-|-8---8-----7--7--7--|
|--8--8-5----8--8--8----5-|-----------8--8--8--|
|
| Gtr IV
|  E  E E    E  E  E E  E   Q   Q  E  E  E  E
|--0--3-5----5--8-10-8----|----10--8--8--5--8--|
|----------------------10-|--------------------|
|-------------------------|-9---7--5--5--------|
|-------------------------|--------------------|
|-------------------------|--------------------|
|-------------------------|--------------------|
|
|  W                        W
|-------------------------|--------------------|
|-------------------------|--------------------|
|-------------------------|--------------------|
|-------------------------|--------------------|
|-------------------------|--------------------|
|-------------------------|--------------------|


   E  E  S S  E  E  E     E    E     Q   Q  E  E  E  E
|----------------------------------|--------5----------|
|-------------------------6----6---|-6---6-------------|
|--9--9-------9--9--9-----5----5---|-5---5-----9--9--9-|
|-10-10--5---10-10-10-----7----7---|-7---7----10-10-10-|
|--7--7--5----7--7--7-----8----8---|-8---8-----7--7--7-|
|--8--8--5----8--8--8----------5---|-----------8--8--8-|
|
| Gtr III
|  W                                 Q   Q  E  E  E  E
|----------------------------------|-3------3--5--8-10-|
|----------------------------------|-----5-------------|
|----------------------------------|-----5-------------|
|----------------------------------|-----5-------------|
|----------------------------------|-------------------|
|----------------------------------|-------------------|
|
| Gtr IV
|  Q     E    E  E  S  S  S  S S S   Q   Q  E  E  E  E
|-10----13-------------------------|-----8--------8-10-|
|------------15----------15-13---8-|-8---8--8-10-------|
|---------------14-12----------9---|-----9-------------|
|---------------------14-12-10-----|----10-------------|
|----------------------------------|----10-------------|
|----------------------------------|-------------------|


   E  E S S  E  E  E E E   Q  Q  E  E  E  E
|------------------------|-------5-----------|
|--------------------6-6-|-6--6--------------|
|--9--9------9--9--9-5-5-|-5--5-----9--9--9--|
|-10-10-5---10-10-10-7-7-|-7--7----10-10-10--|
|--7--7-5----7--7--7-8-8-|-8--8-----7--7--7--|
|--8--8-5----8--8--8---5-|----------8--8--8--|
|
|  E  E E    E  E  E Q     Q  Q  Q     Q
|--8---------------------|----3--------5-----|
|----10-8----------------|-------3-----------|
|------------9--7--5-5---|-5-----------------|
|------------------------|-------------------|
|------------------------|-------------------|
|------------------------|-------------------|
|
|  E  E E    E  E  E Q     W
|--8-----------10--8-8---|-------------------|
|----10-8----------------|-------------------|
|------------9--7--5-5---|-------------------|
|------------------------|-------------------|
|------------------------|-------------------|
|------------------------|-------------------|


   E  E  S S  E  E  E  E E    Q   Q     E  E  E  E
|--------------------------|------------5----------|
|----------------------6-6-|--6---6----------------|
|--9--9-------9--9--9--5-5-|--5---5--------9--9--9-|
|-10-10--5---10-10-10--7-7-|--7---7-------10-10-10-|
|--7--7--5----7--7--7--8-8-|--8---8--------7--7--7-|
|--8--8--5----8--8--8----5-|---------------8--8--8-|
|
|  E  E  E    E  E  E  Q      Q   E  E  E  E  E  E
|--8-10-13-----------------|-----------------------|
|------------15-13----13---|--------------10--8-10-|
|---------------------12---|-----------------------|
|------------------14------|-10--12-14-12----------|
|--------------------------|-----------------------|
|--------------------------|-----------------------|
|
| Gtr V
|  Q     Q       Q     Q      Q   Q     Q     Q
|--------------------------|-----------------------|
|--------------------------|-----------------------|
|--------------------------|-----------------------|
|--------------------------|-----------------------|
|--1-------------1---------|--1---------1----------|
|--------0-------------0---|------0-----------0----|


   E  E  S S  E  E  E  E E   Q    Q   E  E  E  E
|--------------------------|----------5----------|
|----------------------6-6-|-6----6--------------|
|--9--9-------9--9--9--5-5-|-5----5------9--9--9-|
|-10-10--5---10-10-10--7-7-|-7----7-----10-10-10-|
|--7--7--5----7--7--7--8-8-|-8----8------7--7--7-|
|--8--8--5----8--8--8----5-|-------------8--8--8-|
|
|                            Gtr IV
|  E  E  E    E  E  E  Q     E  E E E E  E  E  E
|-10-13-15---13------------|-8-10-8---3--5--8----|
|--------------------------|--------5---------10-|
|---------------14---------|-5--7-5--------------|
|------------------12-10---|---------------------|
|--------------------------|---------------------|
|--------------------------|---------------------|
|
|  Q     Q       Q     Q     Q    Q   Q     Q
|--------------------------|---------------------|
|--------------------------|---------------------|
|--------------------------|---------------------|
|--------------------------|---------------------|
|--1-------------1---------|-1--------1----------|
|--------0-------------0---|------0---------0----|


   E  E  E  E  H        Q  Q  E  E  E  E
|---------------------|-------5----------|
|---------------------|-6--6-------------|
|--9--9--9--9--9------|-5--5-----9--9--9-|
|-10-10-10-10-10------|-7--7----10-10-10-|
|--7--7--7--7--7------|-8--8-----7--7--7-|
|--8--8--8--8--8------|----------8--8--8-|
|
| Gtr II
|  W                    W
|---------------------|------------------|
|--1------------------|------------------|
|---------------------|------------------|
|---------------------|------------------|
|---------------------|------------------|
|---------------------|------------------|
|
| Gtr III
|  H           Q   Q    W
|---------------------|------------------|
|---------------------|------------------|
|---------------------|------------------|
|-----------------10--|------------------|
|---------------------|------------------|
|---------------------|------------------|


   E  E S S  E  E  E E E   Q  Q  E  E  E  E
|------------------------|-------5-----------|
|--------------------6-6-|-6--6--------------|
|--9--9------9--9--9-5-5-|-5--5-----9--9--9--|
|-10-10-5---10-10-10-7-7-|-7--7----10-10-10--|
|--7--7-5----7--7--7-8-8-|-8--8-----7--7--7--|
|--8--8-5----8--8--8---5-|----------8--8--8--|
|
|  W                       W
|------------------------|-------------------|
|------------------------|-------------------|
|------------------------|-------------------|
|------------------------|-------------------|
|------------------------|-------------------|
|------------------------|-------------------|
|
|  W                       W
|------------------------|-------------------|
|------------------------|-------------------|
|------------------------|-------------------|
|------------------------|-------------------|
|------------------------|-------------------|
|------------------------|-------------------|


   E  E S S  E  E  E E E   Q  Q  E  E  E  E    W
|------------------------|-------5----------|-------*|
|--------------------6-6-|-6--6-------------|-------*|
|--9--9------9--9--9-5-5-|-5--5-----9--9--9-|--9----*|
|-10-10-5---10-10-10-7-7-|-7--7----10-10-10-|-10----*|
|--7--7-5----7--7--7-8-8-|-8--8-----7--7--7-|--7----*|
|--8--8-5----8--8--8---5-|----------8--8--8-|--8----*|
|
| Gtr III                                     Gtr IV
|  E  E E    E  E  E Q     W                   W
|------------------------|------------------|--3----*|
|-----8------------------|------------------|--1----*|
|--9----9----7--5--5-5---|-5----------------|--0----*|
|------------------------|------------------|--2----*|
|------------------------|------------------|--3----*|
|------------------------|------------------|-------*|
|
| Gtr V
|  Q    Q       Q    Q     Q  Q  Q     Q       W
|------------------------|------------------|-------*|
|------------------------|------------------|-------*|
|------------------------|------------------|-------*|
|------------------------|------------------|--3----*|
|--1------------1--------|-1-----1----------|-------*|
|-------0------------0---|----0--------0----|-------*|


Duration Legend
---------------
W - whole; H - half; Q - quarter; E - 8th; S - 16th; T - 32nd; X - 64th; a - acciaccatura
+ - note tied to previous; . - note dotted; .. - note double dotted
Uncapitalized letters represent notes that are staccato (1/2 duration)
Irregular groupings are notated above the duration line
Duration letters will always appear directly above the note/fret number it represents the
duration for.  Duration letters with no fret number below them represent rests.  Multi-
bar rests are notated in the form Wxn, where n is the number of bars to rest for.  Low
melody durations appear below the staff

Tablature Legend
----------------
 h   - hammer-on
 p   - pull-off
 b   - bend
 pb  - pre-bend
 r   - bend release (if no number after the r, then release immediately)
 /\  - slide into or out of (from/to "nowhere")
 s   - legato slide
 S   - shift slide
  - natural harmonic
[n]  - artificial harmonic
n(n) - tapped harmonic
 ~   - vibrato
 tr  - trill
 T   - tap
 TP  - trem. picking
 PM  - palm muting
\n/  - tremolo bar dip; n = amount to dip
 \n  - tremolo bar down
 n/  - tremolo bar up
/n\  - tremolo bar inverted dip
 =   - hold bend; also acts as connecting device for hammers/pulls
 <>  - volume swell (louder/softer)
 x   - on rhythm slash represents muted slash
 o   - on rhythm slash represents single note slash

Misc Legend
-----------
 |  - bar
||  - double bar
||o - repeat start
o|| - repeat end
*|  - double bar (ending)
 :  - bar (freetime)
 $  - Segno
 &  - Coda
Tempo markers -  = BPM(8/16=s8/s16), where s8 = swing 8ths, s16 = swing 16ths
Tap to rate this tab
# A B C D E F G H I J K L M N O P Q R S T U V W X Y Z