Song name
# A B C D E F G H I J K L M N O P Q R S T U V W X Y Z

Dire Straits - Single Handed Sailor tab

heres the intro

riff1 x2
riff2
riff1

riff1
riff3
riff2
riff1

riff4

chords to come

riff 1
e|--------3h5--10---|
B|---3h6------------|
G|------------------|
D|------------------|
A|------------------|
E|------------------|

riff2
e|--------3h5--8----|
B|---3h6------------|
G|------------------|
D|------------------|
A|------------------|
E|------------------|

riff3
e|--------3h5--10-10--|
B|---3h6--------------|
G|--------------------|
D|--------------------|
A|--------------------|
E|--------------------|

riff4
e|--3h5-3--------------|
B|---------3h6-3--3----|
G|---------------------|
D|---------------------|
A|---------------------|
E|---------------------|
Tap to rate this tab
# A B C D E F G H I J K L M N O P Q R S T U V W X Y Z