Song name
# A B C D E F G H I J K L M N O P Q R S T U V W X Y Z

Dire Straits - Twisting By The Pool tab

---------------------------------------------------------
     TWISTING BY THE POOL       DIRE STRAITS
---------------------------------------------------------

By davey1272250
email fletcherdk@netcall.com.au



Intro lick - jonny B goode style

e|------0-0-0-0-0-0-0-0-0---------------|
B|-----\8-8-7-7-5-5-7-7-8---------------|
G|--------------------------------------|
D|--------------------------------------|
A|--------------------------------------|
E|--------------------------------------|

e|------0-0-0-0-0-0------/8-8-7-5-------|
B|-----/8-8-7-7-5-5------/8-------8-5---|
G|--------------------------------------|
D|--------------------------------------|
A|--------------------------------------|
E|--------------------------------------|


The Rock & Roll groove pattern follows
(use barre chords on the 4th,5th,6th strings with the pinky playing the 6th notes of course!)


A                       D               E
Were Going on a Holiday Swing,swing....(rpt)

D              E
Yeah its gonna be so neat...(rpt)

E
Twisting By the....

A                   D
Twisting By the Pool...



pre solo slow bit..

Bm   F#   Bm    D    E....  (a one, a two, a one two three four..)


the solo licks go a bit like this i think?

e|----------------------------------------------------------------------|
B|----/14-14--12-14-12-14-------/15-15-17-15---/12-12-14-12-------------|
G|----/14-14--12-14-12-14-------/14-14---------/12-12-------------------|
D|----------------------------------------------------------------------|
A|----------------------------------------------------------------------|
E|----------------------------------------------------------------------|

Repeat once




Not much to the song really, but a great party song!







Tap to rate this tab
 
# A B C D E F G H I J K L M N O P Q R S T U V W X Y Z