Song name
# A B C D E F G H I J K L M N O P Q R S T U V W X Y Z

Dire Straits - Wild West End tab

----------------------------------------------------------------------------
			     Wild West End (Intro) - Dire Straits
----------------------------------------------------------------------------
Tabbed by: Lewis Peattie
Email: fat_lui@hotmail.com


This is my first tab so please forgive any inaccuracies: I think it sounds pretty good though.
Please feel free to use this as a base and improve upon it.

Such a great song!


Tuning: EADGBe

e|-5/7--7--7--7---5--5--5--2--2--2--5---3---3--3--3---3--3--3---3--3--3--0-|
B|-5/7--7--7--7---5--5--5--3--3--3--3---5---5--5--5---3--3--3---0--0--0--0-|
G|-7-7--7--7--7---7--7--7--2--2--2--2---4---4--4--4---4--4--4---4--4--4--4-|
D|-------------------------------------------------------------------------|
A|-------------------------------------------------------------------------|
E|-------------------------------------------------------------------------|

e|-5/7--7--7--7---5--5--5--2--2--2--5---3---3--3--3---3--3--3---3--3--3--3-|
B|-5/7--7--7--7---5--5--5--3--3--3--3---5---5--5--5---3--3--3---3--3--3--3-|
G|-7-7--7--7--7---7--7--7--2--2--2--2---4---4--4--4---4--4--4---4--4--4--4-|
D|-------------------------------------------------------------------------|
A|-------------------------------------------------------------------------|
E|-------------------------------------------------------------------------|

e|-5/7--7--7--7---5--5--5--2--2--2--5---3---3--3--3---3--3--3---3--3--3--3-|
B|-5/7--7--7--7---5--5--5--3--3--3--3---5---5--5--5---3--3--3---3--3--3--3-|
G|-7-7--7--7--7---7--7--7--2--2--2--2---4---4--4--4---4--4--4---4--4--4--4-|
D|-------------------------------------------------------------------------|
A|-------------------------------------------------------------------------|
E|-------------------------------------------------------------------------|

e|-5/7--7--7--7---5--5--5--2--2--2--5---3---3--3--3---3--3--3---3--3--3--0-|
B|-5/7--7--7--7---5--5--5--3--3--3--3---5---5--5--5---3--3--3---0--0--0--0-|
G|-7-7--7--7--7---7--7--7--2--2--2--2---4---4--4--4---4--4--4---4--4--4--4-|
D|-------------------------------------------------------------------------|
A|-------------------------------------------------------------------------|
E|-------------------------------------------------------------------------|

Stepping out to Angelucci's....



| /  slide up
=======================================================
Tap to rate this tab
# A B C D E F G H I J K L M N O P Q R S T U V W X Y Z