Song name
# A B C D E F G H I J K L M N O P Q R S T U V W X Y Z

Director - Easy To Me tab

This is a great song from the album We Thrive On Big Cities.
Great Irish band. This is my first tab. I think it's right, when I play along with the
it sounds good and I originally tabbed this in guitar pro and the tab looks right there
it should be ok. I exported it to plain text to help those who don't want to pay money 
a tab program.
Enjoy!

Comments/Errors: contact me at conorstuff@gmail.com


=====Main intro/verse riff=====

      Q    E  Q    E  Q       E  Q    E  E  E  E  E     Q    E  Q    E  Q
E||------------------------|-------------------------|-----------------------|
B||------------------------|-------------------------|----------2------------|
G||*----------4-------2----|-------------------------|--2-------2-------4----|
D||*----------4-------2----|-----4-------2-----4-----|--2---------------4----|
A||---2--------------------|-----4-------2-----4-----|-----------------------|
E||------------------------|-------------------------|-----------------------|


                            |----3----|
  E  Q    E  E  E  E  E     Q    Q    Q    W
-------------------------|----------------------------------|
-------------------------|----------------------------------|
-----2-------------------|--2-------------------------------|
-----2-------2-----4-----|-------4----2----4----------------|
-------------2-----4-----|----------------------------------|
-------------------------|----------------------------------|

           |----3----|
  H        Q    Q    Q    H           W                     H
-----------------------------------|--------------------||------------|
-----------------------------------|--------------------||------------|
-----------2-----------------------|-------------------*||--3s--------|
--L-------------4----2----4--------|--L----------------*||------------|
-----------------------------------|--------------------||------------|
-----------------------------------|--------------------||------------|

=====Instrumental type riff=====


   E  E   Q    E   Q    E     E  E   Q    E   Q    E
---------------------------|--------------------------|
---------12----------------|--------12----------------|
--11--------------11-------|-----------------11-------|
------x--------x--------9--|-----x--------x--------8--|
---------------------------|--------------------------|
---------------------------|--------------------------|


  E  E   Q    E  Q    E     E  E   Q    E  Q    E
-------------------------|-------------------------|
-------------------------|-------------------------|
--------11-------9-------|--------11-------9-------|
-----x--------x-------8--|-----x--------x-------8--|
-------------------------|-------------------------|
-------------------------|-------------------------|


  E   E   Q     E   Q    E     E   E   Q     E   Q     E
----------------------------|-----------------------------|
----------------------------|---------12--------12----12--|
------x--12----11--12----9--|------x--------12------------|
----------------------------|-----------------------------|
----------------------------|-----------------------------|
----------------------------|-----------------------------|


   E  E   E   Q     E  E   E      Q     Q     H            W
--10--9-----------------------|------------------------|
---------12-------------------|--------10--------------|
-------------11-----L--9--11--|---L----------11--------|
------------------------------|------------------------|
------------------------------|------------------------|
------------------------------|------------------------|

=====The interlude=====

   W
|--------------------|
|--------------------|
|--11----------------|
|--------------------|
|--------------------|
|--------------------|

   W                    W                    W
|--14----------------|--------------------|--------------------|
|--------------------|--------------------|--14----------------|
|--------------------|--15----------------|--------------------|
|--------------------|--------------------|--------------------|
|--------------------|--------------------|--------------------|
|--------------------|--------------------|--------------------|


   W                    W                    W
--------------------|--------------------|--------------------|
--------------------|--12----------------|--------------------|
--12----------------|--------------------|--11----------------|
--------------------|--------------------|--------------------|
--------------------|--------------------|--------------------|
--------------------|--------------------|--------------------|

Getting Louder...                   Need lots of sustain here.
   E   E   E   E   E   E   E   E     W                    W
----------------------------------|--------------------|-------------------|
----------------------------------|--------------------|-------------------|
--11--11--11--11--11--11--11--11--|--------------------|-------------------|
---9---9---9---9---9---9---9---9--|--------------------|-------------------|
----------------------------------|--2~----------------|--L----------------|
----------------------------------|--------------------|-------------------|


                                         The two end solos start here.

  W                   W                   Q    E  Q    E  Q
-------------------|-------------------|-----------------------|
-------------------|-------------------|-----------------------|
-------------------|-------------------|----------4-------2----|
-------------------|-------------------|----------4-------2----|
--L----------------|--L----------------|--2--------------------|
-------------------|-------------------|-----------------------|


  E  Q    E  E  E  E  E     Q    E  Q    E  Q       E  Q    E  E  E  E  E
-------------------------|-----------------------|-------------------------|
-------------------------|----------2------------|-------------------------|
-------------------------|--2-------2-------4----|-----2-------------------|
-----4-------2-----4-----|--2---------------4----|-----2-------2-----4-----|
-----4-------2-----4-----|-----------------------|-------------2-----4-----|
-------------------------|-----------------------|-------------------------|


  |----3----|    |----3----|       |----3----|    |----3----|
  Q    Q    Q    Q    Q    Q       Q    Q    Q    Q    Q    Q
--------------------------------|--------------------------------|
--------------------------------|--------------------------------|
--2-----------------------------|--2---------2----4----2----4----|
-------4----2----4----2----4----|-------4------------------------|
--------------------------------|--------------------------------|
--------------------------------|--------------------------------|


    |----3----|    |----3----|       |----3----|     |-----3----|
    Q    Q    Q    Q    Q    Q       Q    Q    Q     Q    Q     Q
----------------------------------|----------------------------------|
-------------------5---------5----|--7----5----7----10----7----10----|
--4g6----4----6---------6---------|----------------------------------|
----------------------------------|----------------------------------|
----------------------------------|----------------------------------|
----------------------------------|----------------------------------|


   W                     W                   W
---------------------|--------------------|--------------------|
--12~----------------|---L----------------|--------------------|
---------------------|--------------------|--------------------|
---------------------|--------------------|--2~----------------|
---------------------|--------------------|--------------------|
---------------------|--------------------|--------------------|


  W                   Q    E  Q    E  Q       E  Q    E  E  E  E  E
-------------------|-----------------------|-------------------------|
-------------------|-----------------------|-------------------------|
-------------------|----------4-------2----|-------------------------|
--L----------------|----------4-------2----|-----4-------2-----4-----|
-------------------|--2--------------------|-----4-------2-----4-----|
-------------------|-----------------------|-------------------------|


  Q    E  Q    E  Q       E  Q    E  E  E  E  E     Q    E  Q    E  Q
-----------------------|-------------------------|-----------------------|
----------2------------|-------------------------|-----------------------|
--2-------2-------4----|-----2-------------------|----------4-------2----|
--2---------------4----|-----2-------2-----4-----|----------4-------2----|
-----------------------|-------------2-----4-----|--2--------------------|
-----------------------|-------------------------|-----------------------|


  E  Q    E  E  E  E  E     Q    E  Q    E  Q       E  Q    E  E  E  E  E
-------------------------|-----------------------|-------------------------|
-------------------------|----------2------------|-------------------------|
-------------------------|--2-------2-------4----|-----2-------------------|
-----4-------2-----4-----|--2---------------4----|-----2-------2-----4-----|
-----4-------2-----4-----|-----------------------|-------------2-----4-----|
-------------------------|-----------------------|-------------------------|


  |----3----|    |----3----|       |----3----|    |----3----|
  Q    Q    Q    Q    Q    Q       Q    Q    Q    Q    Q    Q
--------------------------------|--------------------------------|
--------------------------------|--------------------------------|
--2-----------------------------|--2---------2----4----2----4----|
-------4----2----4----2----4----|-------4------------------------|
--------------------------------|--------------------------------|
--------------------------------|--------------------------------|


    |----3----|    |----3----|       |----3----|     |-----3----|
    Q    Q    Q    Q    Q    Q       Q    Q    Q     Q    Q     Q
----------------------------------|----------------------------------|
-------------------5---------5----|--7----5----7----10----7----10----|
--4g6----4----6---------6---------|----------------------------------|
----------------------------------|----------------------------------|
----------------------------------|----------------------------------|
----------------------------------|----------------------------------|


  |-----3----|    |----3----|        |-----3----|     |-----3-----|
  Q     Q    Q    Q    Q    Q        Q    Q     Q     Q     Q     Q
--7----------7----9----7----9----|--12----9----12----14----12----14----|
-------10------------------------|-------------------------------------|
---------------------------------|-------------------------------------|
---------------------------------|-------------------------------------|
---------------------------------|-------------------------------------|
---------------------------------|-------------------------------------|


   |-----3-----|     |-----3-----|
   Q     Q     Q     Q     Q     Q        H          E  E   Q
--17----14----17----19----17----19----|--21b--------19-----19\----|-------||
--------------------------------------|---------------------------|-------||
--------------------------------------|---------------------------|-------||
--------------------------------------|---------------------------|-------||
--------------------------------------|---------------------------|-------||
--------------------------------------|---------------------------|-------||


Duration Legend
---------------
W - whole
H - half
Q - quarter
E - 8th
S - 16th
T - 32nd
X - 64th
. - note dotted
|-n-|  - n-tuplets


Tablature Legend
----------------
L - tied note
x - dead note
h - hammer on
p - pull off
b - bend
br - bendRelease
pb - preBend
pbr - preBendRelease
brb - bendReleaseBend
/ -  slide into from below or out of upwards
\ -  slide into from above or out of downwards
~ - vibrato
W - wide vibrato
Tap to rate this tab
# A B C D E F G H I J K L M N O P Q R S T U V W X Y Z