Song name
# A B C D E F G H I J K L M N O P Q R S T U V W X Y Z

Director - Big Cities tab

-------------------------------------------------------------------------------
			     BIG CITIES - Director
-------------------------------------------------------------------------------
Tabbed by: RomStapleton (Romain Q.)
Email: -

Tuning: Standard (eBGDAE)


A great song, in my opinion. I've tried to do something correct. Please rate and comment !

Intro (play this riff using the palm mute technique):

e|---------------------------------------------------------------------------|
B|---------------------------------------------------------------------------|
G|---------------------------------------------------------------------------|
D|--6-6-6-6-6-6-6---6-6-6-4-6-6-6---6-6-6---7-7---4-6-6-6--------------------|
A|---------------------------------------------------------------------------|
E|---------------------------------------------------------------------------|

Verse : Guitar 1 is playing the intro riff


Chorus (occurs at 0:26, 0:50 and 1:52) :

Guitar 1
e|----9--9--9--9--9--9--9--9-7-7-7-7-7-7-7-x--9--9--9--9--9--9--9--9--|
B|---10-10-10-10-10-10-10-10-9-9-9-9-9-9-9-x--9--9--9--9--9--9--9--9--|
G|---11-11-11-11-11-11-11-11-9-9-9-9-9-9-9-x--9--9--9--9--9--9--9--9--|
D|---11-11-11-11-11-11-11-11-9-9-9-9-9-9-9-x-11-11-11-11-11-11-11-11--|
A|----9--9--9--9--9--9--9--9-7-7-7-7-7-7-7-x-11-11-11-11-11-11-11-11--|
E|-----------------------------------------x--9--9--9--9--9--9--9--9--|

e|----9--9--9--9--9--9--9--x-4-4-4-4-4-4-4-4--|
B|---10-10-10-10-10-10-10--x-4-4-4-4-4-4-4-4--|
G|---11-11-11-11-11-11-11--x-5-5-5-5-5-5-5-5--|
D|---11-11-11-11-11-11-11--x-6-6-6-6-6-6-6-6--|
A|----9--9--9--9--9--9--9--x-6-6-6-6-6-6-6-6--|
E|-------------------------x-4-4-4-4-4-4-4-4--|

Guitar 2
e|---------------------------------------------------------------------|
B|---------------------------------------------------------------------|
G|---14-14-14-14-14-14-14-14\13-13-13-13-13-13-13-13\6-6-6-6-6-6-6-6---|
D|---14-14-14-14-14-14-14-14\13-13-13-13-13-13-13-13\6-6-6-6-6-6-6-6---|
A|---12-12-12-12-12-12-12-12\11-11-11-11-11-11-11-11\4-4-4-4-4-4-4-4---|
E|---------------------------------------------------------------------|

e|---------------------------------------------|
B|---------------------------------------------|
G|--/11-11-11-11-11-11-11-11\5-5-5-5-5-5-5-5---|
D|--/11-11-11-11-11-11-11-11\5-5-5-5-5-5-5-5---|
A|--/-9--9--9--9--9--9--9--9\3-3-3-3-3-3-3-3---|
E|---------------------------------------------|

Only guitar 2 plays on the first chorus.


Solo :

Guitar 1 plays the chords of the chorus while guitar 2 plays the solo.

e|------------12----------------------------------------------------|
B|------12-14-----14-12-14-12-14--14\---12-12-----------------------|
G|---13---------------------------------------14-14-13-13-13-11-11--|
D|------------------------------------------------------------------|
A|------------------------------------------------------------------|
E|------------------------------------------------------------------|

e|------------------------------------------------------|
B|---10-10----------------------------------------------|
G|---------13-13-11-11-11-9-9----8-8-9-9-8-8\6~-----/18-|
D|------------------------------------------------------|
A|------------------------------------------------------|
E|------------------------------------------------------|

Break :

Guitar 1 plays the main riff played in the verse, while guitar 2 plays this riff, using 
mute (except for the last note).

e|--------------------------------------------------------------------------------------------|
B|--------------------------------------------------------------------------------------------|
G|---6-6-6-4-6-6-6--6-6-6--8-8--4-6-6-6-6-6-6-6--6-6-6-4-6-6-6-4-4-4-4-4-4-4-4-8-8-8-4-6-6-6\-|
D|--------------------------------------------------------------------------------------------|
A|--------------------------------------------------------------------------------------------|
E|--------------------------------------------------------------------------------------------|

That's it, have fun !

| /  slide up
| \  slide down
| h  hammer-on
| p  pull-off
| ~  vibrato
| +  harmonic
| x  Mute note
===============================================================================
Tap to rate this tab
 
# A B C D E F G H I J K L M N O P Q R S T U V W X Y Z