Song name
# A B C D E F G H I J K L M N O P Q R S T U V W X Y Z

Director - Standing In My Way tab

Tuning:Standard
Heres one of directors good songs!
I Think the 2 guitarists play the exact same piece for most of the song.

Intro:
e|--------------------------------------------------------------------------|
B|--------------------------------------------------------------------------|
G|--------------------------------------------------------------------------|
D|--16-x12----14-x12--------------------------------------------------------|
A|--------------------------------------------------------------------------|
E|--------------------------------------------------------------------------|

play this twice
e|--------------------------------------------------------------------------|
B|--------------------------------------------------------------------------|
G|--14--------------11------------------------------------------------------|
D|--14--x8----------11--x8---x2---------------------------------------------|
A|--12--------------9-------------------------------------------------------|
E|--------------------------------------------------------------------------|

Then chorus:
e|--------------------------------------------------------------------------|
B|--------------------------------------------------------------------------|
G|-4---6---7---12---11---12---14---15---------------------------------------|
D|--------------------------------------------------------------------------|
A|-2---4---5---10---9---10---12---13----------------------------------------|
E|--------------------------------------------------------------------------|


e|--------------------------------------------------------------------------|
B|--------------------------------------------------------------------------|
G|-4---6---7---12---11---12---14---15---16----------------------------------|
D|--------------------------------------------------------------------------|
A|-2---4---5---10---9---10---12---13---14-----------------------------------|
E|--------------------------------------------------------------------------|

small lead part straight after:
e|----------------|---------------------------------------------------------|
B|----------------|---------------------------------------------------------|
G|-19--18--16-x3--|-16\11-12-14-15------------------------------------------|
D|----------------|---------------------------------------------------------|
A|----------------|---------------------------------------------------------|
E|----------------|---------------------------------------------------------|

both guitars:
e|--------------------------------------------------------------------------|
B|--------------------------------------------------------------------------|
G|-7----6----4--------------------------------------------------------------|
D|-7----6----4--x4----------------------------------------------------------|
A|-5----4----2--------------------------------------------------------------|
E|--------------------------------------------------------------------------|

repeat intro and chorus again
and then:

solo:
e|-------------------------------------------------------------17-19-17-----|
B|---------19--------19--------19--20-19-----------19-------19--------------|
G|--16-16-----16-16-----16-16---------------16-16-----16--------------------|
D|--------------------------------------------------------------------------|
A|--------------------------------------------------------------------------|
E|--------------------------------------------------------------------------|

e|----17-19-17-----17-19-17-----17-19-17------17-19-17------17-19-17--------|
B|-19-----------19-----------19-----------19-------------19-----------------|
G|--------------------------------------------------------------------------|
D|--------------------------------------------------------------------------|
A|--------------------------------------------------------------------------|
E|--------------------------------------------------------------------------|

e|-----17-19-17------17-19-17--19b\-----------------------------------------|
B|-19-------------19--------------------------------------------------------|
G|--------------------------------------------------------------------------|
D|--------------------------------------------------------------------------|
A|--------------------------------------------------------------------------|
E|--------------------------------------------------------------------------|
well good luck with that.mark
Tap to rate this tab
# A B C D E F G H I J K L M N O P Q R S T U V W X Y Z