Song name
# A B C D E F G H I J K L M N O P Q R S T U V W X Y Z

Dirge Within - Forever The Martyr tab

-------------------------------------------------------------------------------
			     Forever the Marthyr - Dirge Within
-------------------------------------------------------------------------------
Tabbed by: Xlog
Email: metalstorm@hotmail.fr

Tuning: Drop Bb/A#

I let you to figure out all the palm mute of the song, the rythm, it's not hard to find it.


Intro:

|----------------------------------------------------------|
|----------------------------------------------------------|
|----------------------------------------------------------|
|--0-0----------------------------8--8-8-8-8-7--7-7-7-7h8--|
|--0-0-8---7---10---8---7---7h8p7-8--8-8-8-8-7--7-7-7-7h8--|
|--0-0---0---0----0---0---0-------8--8-8-8-8-7--7-7-7-7h8--|

Alternate way to play the intro:

|----------------------------------------------------------|
|----------------------------------------------------------|
|---------------------------------3--3-3-3-3-2--2-2-2-2h3--|
|--0-0-3---2---5---3---2---2h3p2--3--3-3-3-3-2--2-2-2-2h3--|
|--0-0----------------------------1--1-1-1-1-0--0-0-0-0h1--|
|--0-0---0---0---0---0---0---------------------------------|
Alternative end of the riff:
|----------------------------------------------------------------------------------| 
|----------------------------------------------------------------------------------|
|--10-10/12-12/14-14\12-12\10-10/12-12/14-14\12-12\10 -10-10-10-10-10-9-9-9-9-9/10 |     |-------|
|--x--x--x--x--x--x--x--x--x--x--x--x--x--x--x--x--x---x--x--x--x--x--x-x-x-x-x-x--|     |--7h8--|
|--8--8-/10-10/12-12\10-10\8--8-/10-10/12-12\10-10\8---8--8--8--8--8--7-7-7-7-7/8--|     |--7h8--|
|----------------------------------------------------------------------------------|     |--7h8--|

Main riff:

|----------------------------------------------------------|
|----------------------------------------------------------|
|-----------------------------------------5-7-8-7----------|
|--0-------------3s5-6-5-0----------------x-x-x-x----------|
|--0-------------3s5-6-5-0----------------3/5-6-5----------|
|--0-0-0-0-0-0-0-3s5-6-5-0-0-0-0-000-0-0-------------------|

End of the main riff:

|----------------|  
|----------------|  
|----------------|    
|----------------|   
|--6p5-----------|  
|-------8-7--7---| 


Clean riff:

|-----------------------------------|
|-----------------------------------|
|-----------------------------------|
|----0-0-0---0-0-0---0-0-0--0-0-0---|
|-----------------------------------|
|--0-------4-------5-------1--------|

Riff after the clean part:

|-----------------------------------|
|-----------------------------------|
|-----------------------------------|
|--0-0-0-0-4-4-4-4-5-5-5-5-1-1-1-1--|
|--0-0-0-0-4-4-4-4-5-5-5-5-1-1-1-1--|
|--0-0-0-0-4-4-4-4-5-5-5-5-1-1-1-1--|

Breakdown:

|-------------------------|
|-------------------------|
|-------------------8-----|
|-------------------7-----|
|-------------------6-----|
|--000-000-000-000--------|

Then:

|----------------------------------|
|----------------------------------|
|----------------------------------|
|----------------------------------|
|--0-----------0-----------6p5-----|
|----0-0-6-0-0---0-0-6-0-0----8p7--|


Solo after clean part:

|--------------------------------------------------------------------------------|
|------10-7---10-7------13-10---13-10--------15-12----15-12-------12-9---12-9----|
|---/7-----7------7--/10------10-----10--/12-------12------12--/9------9------9--|
|--------------------------------------------------------------------------------|
|--------------------------------------------------------------------------------|
|--------------------------------------------------------------------------------|

************************************

| /   slide up
| \   slide down
| h   hammer-on
| p   pull-off
| ~   vibrato
| +   harmonic
| x   Mute note
| b   Bend
| pb  Pre-bend
| br  Bend release
| pbr Pre-bend release
| brb Bend release bend

************************************

Tap to rate this tab
 
# A B C D E F G H I J K L M N O P Q R S T U V W X Y Z