Song name
# A B C D E F G H I J K L M N O P Q R S T U V W X Y Z

Dirk Maassen - To The Sky tab

-------------------------------------------------------------------------------
                             TO THE SKY - Dirk Maassen
-------------------------------------------------------------------------------
Tabbed by: mindblock
E-mail: nesumbot@abv.bg

Tuning: Drop D

e|---------------------------------------------------------------------------|
B|--------------5-----3-----5----------------5-----3-----5-----3-----5-------|
G|------4-5---4-----4-----4----------4-5---4-----4-----4-----4-----4---------|
D|----2-----2-----2-----2----------2-----2-----2-----2-----2-----2-----------|
A|--0----------------------------0-------------------------------------------|
D|---------------------------------------------------------------------------|

e|-----------------------------8--7--------5--3--------5--0---------------0--|
B|--------------------------5-----------------------0-----------1---1--3-----|
G|--------------------5--7-----------------------0-----------2---------------|
D|-----------------------------------3--7-----0-----------2------------------|
A|--------------------------------3------------------------------------------|
D|---------------------------------------------------------------------------|

e|-8--7--------5--1--------3--0----------------0---8--7---------12h13--13----|
B|----------------------0-----------1---1---3--------------------------------|
G|-------------------0-----------2-----------------------------------------0-|
D|-------3--7-----0-----------2---------------------------3---7---------0----|
A|----3-----------------------------------------------3----------------------|
D|---------------------------------------------------------------------------|

e|-----12-----------------------8--7--------5--3--------5--0-------------0---|
B|--0-------10---------------5-----------------------0-----------1-1--1------|
G|---------------------5--7-----------------------0-----------2--------------|
D|-------------7--10------------------3--7-----0-----------2-----------------|
A|----------7----------------------3-----------------------------------------|
D|---------------------------------------------------------------------------|

e|--3--1--------1--5---------5------------------0--3--1--------1--5----------|
B|----------------------------------------1--3-------------------------------|
G|-----------------------0------------2---------------------------------0----|
D|--------0--3--------2------------2---------------------0--3--------2-------|
A|-----0-----------0------------0---------------------0-----------0----------|
D|---------------------------------------------------------------------------|

e|--5------------------------------------------------------------------------|
B|---------------------1-----------------------1-----------------------------|
G|-----------2------------------2-----------------------2--------------------|
D|--------2------------------3-----------3--3--------3-----------3--3-----2--|
A|-----0------------------3-----------3-----------3-----------3--------0-----|
D|---------------------3-----------3-----------3-----------3-----------------|

e|-----------------------------------------0--------------------------3------|
B|-----0-----------1-----------3--------------------------6------------------|
G|--2-----------2-----------2-----------2------------------------------------|
D|-----------2-----------2-----------2-----------------3-----------3---------|
A|--------0-----------0-----------0-----------------3-----------3------------|
D|-----------------------------------------------3-----------3---------------|

e|-----------5-----------7--8--------7---------------------------------------|
B|-----------------------------------------------10-----------------------1--|
G|------------------------------------------------------------9--------------|
D|--------3-----------3-----------7-----------7-----------7------------7-----|
A|-----3-----------3-----------7-----------7-----------7------------7--------|
D|--3-----------3-----------7-----------7-----------7------------7-----------|

e|---------------------------------------------------------------------------|
B|--------------------------1-----------1--3-----3---------------------------|
G|-----------2-----------------------2--------------------2--2--------2------|
D|--------3-----------3--3--------3-----------3--------2-----------2-----3---|
A|-----3-----------3-----------3-----------3--------0-----------0------------|
D|--3-----------3-----------3-----------3------------------------------------|

e|---------------------------------------------------------------------------|
B|------------------------------------1-----------1-----1-----1-----------1--|
G|--------2-----------2------------------2-----2-----2-----2-----2-----2-----|
D|-----2-----2-----2-----2------------------3-----------------------3--------|
A|--0-----------0------------------------------------------------------------|
D|------------------------------------3-----------------------3--------------|

e|---------------------------------------------------------------------------|
B|-----1-----1-----------1-----1-----1-----------1-----1-------1-----------1-|
G|--2-----2-----2-----2-----2-----2-----2-----2-----2-----2-------4-----4----|
D|-----------------2-----------------------2-------------------------3-------|
A|-----------0-----------------------0---------------------------------------|
D|-------------------------------------------------------------0-------------|

e|---------------------------------------------------------------------------|
B|-----1-----1-----------1-----1-----0-----------0-----0-----0-----------0---|
G|--4-----4-----4-----4-----4-----4-----2-----2-----2-----2-----2-----2------|
D|-----------------3-----------------------2-----------------------2---------|
A|---------------------------------------------------------------------------|
D|-----------0-----------------------2-----------------------2---------------|

e|---------------------------------------------------------------------------|
B|-----0-----1-----------1-----1-----1-----------1-----1-h-3---1-----------1-|
G|--2-----2-----2-----2-----2-----2-----2-----2-----2-------------2-----2----|
D|-----------------3-----------------------3-------------------------2-------|
A|-------------------------------------------------------------0-------------|
D|-----------3-----------------------3---------------------------------------|

e|---------------------------------------------------------------------------|
B|-----1-----1-----------1-----1-h-3----1-----------1-----1-----1------------|
G|--2-----2-----2-----2-----2--------------4-----4-----4-----4-----4-----4---|
D|-----------------2--------------------------3-----------------------3------|
A|-----------0---------------------------------------------------------------|
D|--------------------------------------0-----------------------0------------|

e|---------------------------------------------------------------------------|
B|--1-----1-----0-----------0-----0-----0-----------0-----0-----1------------|
G|-----4-----4-----2-----2-----2-----2-----2-----2-----2-----2-----2-----2---|
D|--------------------2-----------------------2-----------------------3------|
A|--------------3-----------------------3------------------------------------|
D|--------------------------------------------------------------3------------|

e|---------------------------------------------------------------------------|
B|--1-----1-----1-----------1-----1-h-3---1-----------1-----1-----1----------|
G|-----2-----2-----2-----2-----2-------------2-----2-----2-----2-----2-------|
D|--------------------3-------------------------2-----------------------2----|
A|----------------------------------------0-----------------------0----------|
D|--------------3------------------------------------------------------------|

e|---------------------------------------------------------------------------|
B|-----1-----1-h-3--1-----------1-----1-----1-----------1-----1-h-3---1------|
G|--2-----2------------2-----2-----2-----2-----2-----2-----2-------------2---|
D|------------------------3-----------------------3--------------------------|
A|--------------------------------------------------------------------0------|
D|------------------3-----------------------3--------------------------------|

e|--------------------------------------------------------------------0------|
B|--------1-----1-----1-----------1-----1-----1-----------1-----3------------|
G|-----2-----2-----2-----2-----2-----2-----2-----2-----2-----2-----2-----2---|
D|--2-----------------------2-----------------------3------------------------|
A|--------------------0------------------------------------------------------|
D|--------------------------------------------3-----------------------3------|

e|--1-----0-----------------------------------0-----1-----0------------------|
B|--------------3-----1-----------1-----3-----------------------3------------|
G|-----2-----2-----2-----2-----2-----2-----2-----2-----2-----2-----2---------|
D|--------------------------2------------------------------------------------|
A|--------------------0-----------------------0------------------------------|
D|---------------------------------------------------------------------------|

e||--------------------------------------------------------------------------|
B||*--6--5--3-----6--5--3-----6--5--3-----6--5--3-----6--5--------6--5-------|
G||------------------------------------------------4--------7--5--------7--4-|
D||------------3-----------5-----------7-------------------------------------|
A||*--------------------------------------------------0-----------0----------|
D||---3-----------3-----------3-----------3----------------------------------|

e|--------------------------||--5--3--------5--3--------5--3--------5--3-----|
B|-6--5--------6--5--------*||*-------6-----------6-----------6-----------6--|
G|-------7-----------7------||-----------5-----------5-----------5-----------|
D|----------7-----------5---||-----------------------------------------------|
A|-0-----------0-----------*||*----------------------------------------------|
D|--------------------------||--3-----------3-----------3-----------3--------|

e|-----8--7--------8--7--------8--7--------8--7---------||--5-----3----------|
B|-----------9-----------9-----------9-----------9-----*||*-------------6----|
G|--5-----------8-----------8-----------8-----------8---||-----5-----5-----5-|
D|------------------------------------------------------||-------------------|
A|-----------------------------------------------------*||*-------------3----|
D|-----7-----------7-----------7-----------7------------||--3----------------|

e|--3-----5-----3-----------3-----||--8-----7------------7-----8-----7-------|
B|--------------------6----------*||*-------------10-------------------------|
G|-----5-----5-----5-----5-----5--||-----9-----9------9-----9-----9-----9----|
D|--------------------------------||-----------------------------------------|
A|--------------------3----------*||*-------------7--------------------------|
D|--------3-----------------------||--7------------------------7-------------|

e|---------7-----||------------8--7--------5--3--------5--0---------------0--|
B|--10----------*||---------5-----------------------0-----------1---1--3-----|
G|------9-----9--||---5--7-----------------------0-----------2---------------|
D|---------------||------------------3--7-----0-----------2------------------|
A|--7-----------*||---------------3------------------------------------------|
D|---------------||----------------------------------------------------------|

e|-8--7--------5--1--------3--0----------------0---8--7---------12h13--13----|
B|----------------------0-----------1---1---3--------------------------------|
G|-------------------0-----------2-----------------------------------------0-|
D|-------3--7-----0-----------2---------------------------3---7---------0----|
A|----3-----------------------------------------------3----------------------|
D|---------------------------------------------------------------------------|

e|-----12-----------------------8--7--------5--3--------5--0-------------0---|
B|--0-------10---------------5-----------------------0-----------1-1--1------|
G|---------------------5--7-----------------------0-----------2--------------|
D|-------------7--10------------------3--7-----0-----------2-----------------|
A|----------7----------------------3-----------------------------------------|
D|---------------------------------------------------------------------------|

e|--3--1--------1--5---------5------------------0--3--1--------1--5--------5-|
B|----------------------------------------1--3-------------------------------|
G|-----------------------0------------2---------------------------------0----|
D|--------0--3--------2------------2---------------------0--3--------2-------|
A|-----0-----------0------------0---------------------0-----------0----------|
D|---------------------------------------------------------------------------|

e|---------------------------------------------------------------------------|
B|-------------------------5----3-----5----------------5-----3-----5-----3---|
G|--------2--------4-5---4----4-----4----------4-5---4-----4-----4-----4-----|
D|-----2---------2-----2----2-----2----------2-----2-----2-----2-----2-------|
A|--0----------0---------------------------0---------------------------------|
D|---------------------------------------------------------------------------|

e|-----------------------||--------------------------------------------------|
B|-----5-----3-----5-----||*----------------------0-----------1-----------0--|
G|---4-----4-----4-------||--------0--2--------0-----------0-----------0-----|
D|-2-----2-----2---------||-----3-----------3-----------3-----------3--------|
A|-----------------------||*-------------------------------------------------|
D|-----------------------||--3-----------3-----------3-----------3-----------|

e|--------------------------------------------------||-----------------------|
B|--------0-----------0-----------0-----------0----*||---------------------0-|
G|-----------2-----------2-----------2-----------2--||------0--2--------0----|
D|-----2-----------2-----------2-----------2--------||---3-----------3-------|
A|--0-----------0-----------0-----------0----------*||-----------------------|
D|--------------------------------------------------||-3-----------3---------|

e|--------------------------------------------1-----------0------------------|
B|-----------1-----------0--------0-----------------------------------0------|
G|--------0-----------0--------------2-----------2-----------2-----------2---|
D|-----3-----------3-----------2-----------2-----------2-----------2---------|
A|--------------------------0-----------0-----------0-----------0------------|
D|--3-----------3------------------------------------------------------------|

E|--------------------------------------------------------------------1------|
B|-----------------------0-----------1-----------0--------0------------------|
G|--------0--2--------0-----------0-----------0--------------2-----------2---|
D|-----3-----------3-----------3-----------3-----------2-----------2---------|
A|--------------------------------------------------0-----------0-----------0|
D|--3-----------3-----------3-----------3------------------------------------|

e|----0----------------------------------------------------------------------|
B|----------------1----------------------------------------------------------|
G|-------2-----------2-------------------------------------------------------|
D|-2-----------2-------------------------------------------------------------|
A|----------0-------------0~~~-----------------------------------------------|
D|---------------------------------------------------------------------------|



Song: http://www.youtube.com/watch?v=Z4M5i6fFYj4

************************************

| /   slide up
| \   slide down
| h   hammer-on
| p   pull-off
| ~   vibrato
| +   harmonic
| x   Mute note
| b   Bend
| pb  Pre-bend
| br  Bend release
| pbr Pre-bend release
| brb Bend release bend

************************************
Tap to rate this tab
# A B C D E F G H I J K L M N O P Q R S T U V W X Y Z