Song name
# A B C D E F G H I J K L M N O P Q R S T U V W X Y Z

Dirlewanger - Hall Fanan Hogt chords

Highlighted       Show chord diagrams
Hall fanan hogt By: Dirlewanger

Lead:

E|-----------------------------------------------------------------|
B|-----------------------------------------------------------------|
G|-----------------7--6--4--------------------------------4--------|
D|--7--7--5--4--7-----------7--7--5--5--5--4-----7--7--7-----7--4--|
A|--------------------------------------------7--------------------|
E|-----------------------------------------------------------------|

E|--------------------------------------------------------------|
B|--------------7--7--5--------------5--------------------------|
G|-----------7-----------7--6--7--4-----7-----7--6--6--4--6--7--|
D|--7--4--7--------------------------------7--------------------|
A|--------------------------------------------------------------|
E|--------------------------------------------------------------| X2

Verse: (Use power chords)

D                                 G
Håll fanan högt slut leden tätt ihop

                E                    F#
Skinheads marscherar med lugna fasta steg

          D                           B
Ja de kamrater som skjutits av kommunisten

             A                 D
Marscherar i anden med i våra led

                                      B
Ja de kamrater som skjutits av kommunisten

             A                 D
Marscherar i anden med i våra led


And the song goes on like that.
Tap to rate this tab
 
# A B C D E F G H I J K L M N O P Q R S T U V W X Y Z