Song name
# A B C D E F G H I J K L M N O P Q R S T U V W X Y Z

Dirt - Hiroshima tab

Intro:

e|-------------------------------------|
b|-------------------------------------|
g|-------------------------------------|
d|9-xxxxxx-----------------------------|
a|9-xxxxxx-----------------------------|( repeat X 24)
e|7-xxxxxx-----------------------------|

Verses:

e|-------------------------------------|
b|-------------------------------------|
g|-------------------------------------|
d|99-1010-77---------------------------|
a|99-1010-77---------------------------|( repeat X 20)
e|77-88---55---------------------------|

Second Guitar:

e|777-888-555-777----------------------|
b|-------------------------------------|
g|-------------------------------------|
d|-------------------------------------|
a|-------------------------------------|( repeat X 6)
e|-------------------------------------|

End:

e|7777-8888-555-7----------------------|
b|-------------------------------------|
g|-------------------------------------|
d|-------------------------------------|
a|-------------------------------------|( repeat X 6)
e|-------------------------------------|

Lyrics:

It's only a matter of time before it happens here 'cos down in Hiroshima they live in 
constant fear. Don't let them con you it wont. Don't let them con you it
cant 'cos at this very moment they're building a nuclear plant. Inside are all the 
chemicals that make those dangerous gases all they need is one leak and down
will go the masses.

http://www.youtube.com/watch?v=vI2q2Nj2H4E
Tap to rate this tab
# A B C D E F G H I J K L M N O P Q R S T U V W X Y Z