Song name
# A B C D E F G H I J K L M N O P Q R S T U V W X Y Z

Dirt - Ripper tab

Intro/ Verses:

First Guitar       Second Guitar

e|-------------|--8----------------------|
b|-------------|----9--7-----------------|
g|-------------|-------------------------|
d|---10--------|-------------------------|
a|-10----------|-------------------------|
e|8------------|-------------------------|

First Guitar        Second Guitar
e|-------------|--7----7-----------------|
b|-------------|----9--------------------|
g|--9----------|-------------------------|
d|-9-----------|-------------------------|
a|7------------|-------------------------|
e|-------------|-------------------------|

http://www.youtube.com/watch?v=3ZBMSOQg_sk
Tap to rate this tab
 
# A B C D E F G H I J K L M N O P Q R S T U V W X Y Z