Song name
# A B C D E F G H I J K L M N O P Q R S T U V W X Y Z

Dirtbag - Open Cuts tab

"Open Cuts" by Dirtbag

e||-------------------------------|
b||-------------------------------|
g||-------------------------------|
d||-------------------------------| Intro
a||8-8---5-5-5-5-5-8-8---5-5-5-5-5|
e||6-6---3-3-3-3-3-6-6---3-3-3-3-3|

e||-------------------------------|
b||-------------------------------|
g||-------------------------------|
d||----5-5-------------5-5--------| Verse
a||8-8-3-3-5-5-5-5-8-8-3-3-5-5-5-5|
e||6-6-----3-3-3-3-6-6-----3-3-3-3|

e||-------------------------------|
b||-------------------------------|
g||-------------------------------|
d||-------------------------------| Pre-Chorus
a||4-4-4-4-4-4-4-4-5-5-5-5-5-5-5-5|
e||2-2-2-2-2-2-2-2-3-3-3-3-3-3-3-3|

e||-------------------------------|
b||-------------------------------|
g||-------------------------------|
d||-------------------------------| Chorus
a||8-8-x-5-5-5-5-5-8-8-x-5-5-5-5-5|
e||6-6-x-3-3-3-3-3-6-6-x-3-3-3-3-3|
Tap to rate this tab
 
# A B C D E F G H I J K L M N O P Q R S T U V W X Y Z