Song name
# A B C D E F G H I J K L M N O P Q R S T U V W X Y Z

Dirtie Blonde - Hard Times tab

----------------------------------------------------------------------------
			     Hard times - Samson
----------------------------------------------------------------------------
Hey this is my first tab. No one has a tab for this great song so i thought i would
it out. I know theres some mistakes but give me some slack.This is all i can figure out
now but i may add. Heres a link to the band website. Its actually paul samsons website 
was the guitarist for pre samson)It was actually the first "big"band bruce dickinson (the
for iron maiden)was in.


www.paulsamson.co.uk/presamson.html


Tabbed by:Psychedelic60's
Email:redwood237@yahoo.com

Tuning:standard

INTRO
E|----------|------------|
B|----------|------------|
G|----------|------------|  x2
D|------6---|---------7--|
A|--7---4-2-|--4---7--5--|
E|--5-----0-|--2---5-----|

INTRO LEAD
e|-----------|-----------|----------|---------|
B|-----------|-----------|----------|---------|
G|-----------|-----------|----------|---------|
D|-----------|-----------|----------|---------| x2
A|-0-0-0-2-4-|-----------|----------|5-5-5-4-4|
E|-----------|0--0-0-2-4-|-2-2-2-4-5|---------|

VERSE
e|------------------------------------|
B|------------------------------------|
G|--------9-----7-----6----4--4-------| x4
D|--------7-----5-----4----2--2-----2-|
A|----0-0---0-0---0-0---0-0------3p---|
E|------------------------------------|

e|--------------------------------|
B|--------------------------------|
G|-------9-----7------------------|
D|-------7-----5-------5--7--9--5-|
A|---0-0---0-0----0-0--3--5--7--3-|
E|--------------------------------|

e|------------------------------------|
B|------------------------------------|
G|--------9-----7-----6----4--4-------| x4
D|--------7-----5-----4----2--2-----2-|
A|----0-0---0-0---0-0---0-0------3p0--|
E|------------------------------------|

| /  slide up
| \  slide down
| h  hammer-on
| p  pull-off
| ~  vibrato
| +  harmonic
| x  Mute note
===============================================================================
Tap to rate this tab
# A B C D E F G H I J K L M N O P Q R S T U V W X Y Z