Song name
# A B C D E F G H I J K L M N O P Q R S T U V W X Y Z

Dirty Americans - No Rest tab

Band: Dirty Americans
Song: No Rest
Album: Strange Generation



Start off with feedback

Intro
|----------------------------------------------------------|
|----------------------------------------------------------|
|----------------------------------------------------------|
|----------------------------------9-9-9-9-9-9-7-7-7-7-7-7-|
|----------------------------------9-9-9-9-9-9-7-7-7-7-7-7-|
|-0-2-2--0-2-2--0-2-2--0-2-2-2-2-0-7-7-7-7-7-7-5-5-5-5-5-5-|x2
                                   B           A

|----------------------------------|
|----------------------------------|
|----------------------------------|
|----------------------------------|
|----------------------------------|
|-2-2-0-2-2--0-2-2--0-2-2--0-2-2---| keep repeating

Verse
|----------------------------------------------------------|
|----------------------------------------------------------|
|----------------------------------------------------------|
|-----------------------------------7-7-7-7-7-7-9-9-9-9-9-9|
|-----------------------------------7-7-7-7-7-7-9-9-9-9-9-9|
|-0-2-2--0-2-2--0-2-2--0-2-2-2-2-0--5-5-5-5-5-5-7-7-7-7-7-7|x2
                                    A           B

Chorus
|----------------------------------------------------------|
|----------------------------------------------------------|
|----------------------------------------------------------|
|-4-4-4-4-4-4-4-4--------7---------9---9-------------------|
|-4-4-4-4-4-4-4-4--------7-------0-9-0-9-------------------|
|-2-2-2-2-2-2-2-2--------5-------0-7-0-7-------------------| repeat
  F#                     A         B
                      Let Ring

Then on the second time
|----------------------------------------------------------|
|----------------------------------------------------------|
|----------------------------------------------------------|
|-4-4-4-4-4-4-4-4--------7---------9---9-------------------|
|-4-4-4-4-4-4-4-4--------7-------0-9-0-9----11-11-11-11-11-|
|-2-2-2-2-2-2-2-2--------5-------0-7-0-7----9--9--9--9--9--|
  F#                     A         B        C#


|----------------------------------------------------------|
|----------------------------------------------------------|
|----------------------------------------------------------|
|-----------------------------------7-7-7-7-7-7-9-9-9-9-9-9|
|-----------------------------------7-7-7-7-7-7-9-9-9-9-9-9|
|-0-2-2--0-2-2--0-2-2--0-2-2-2-2-0--5-5-5-5-5-5-7-7-7-7-7-7|x2
                                    A           B


For the solo mess around wiht the E minor pent.

Dirty Americans Rock!

-Shane
Tap to rate this tab
# A B C D E F G H I J K L M N O P Q R S T U V W X Y Z