Song name
# A B C D E F G H I J K L M N O P Q R S T U V W X Y Z

Dirty Epics - The Cure tab

Tabbed By SegsiLegsi

Intro/Verse
E|--5-5-5-5-/-----8--8--8--8--/------3-3-3-3-3-3-3-3-/-----4-----------|
B|--5-5-5-5-/-----8--8--8--8--/------3-3-3-3-3-3-3-3-/-----4-----------|
G|--5-5-5-5-/-----8--8--8--8--/------4-4-4-4-4-4-4-4-/-----6-----------|
D|--7-5-5-5-/-----10-10-10-10-/------5-5-5-5-5-5-5-5-/-----7-----------|
A|-(7)------/----(10)---------/-----(5)--------------/----(7)----------|
E|-(5)------/----(8)----------/-----(3)--------------/----(4)----------|


E|--5-5-5-5-/-----8--8--8--9--8--/------3-3-3-3-3-3-3-3-/-----4--------|
B|--5-5-5-5-/-----8--8--8--9--8--/------3-3-3-3-3-3-3-3-/-----4--------|
G|--5-5-5-5-/-----8--8--8--9--8--/------4-4-4-4-4-4-4-4-/-----6--------|
D|--7-5-5-5-/-----10-10-10-11-10-/------5-5-5-5-5-5-5-5-/-----7--------|
A|-(7)------/----(10)------------/-----(5)--------------/----(7)-------|
E|-(5)------/----(8)-------------/-----(3)--------------/----(4)-------|


Chorus
E|--5-5-5-5-/-----3-3-3-3--/------8--8--8--8--/-----3-3-3-3-----------|
B|--5-5-5-5-/-----3-3-3-3--/------8--8--8--8--/-----3-3-3-3-----------|
G|--6-6-6-6-/-----4-4-4-4--/------9--9--9--9--/-----4-4-4-4-----------|
D|--7-7-7-7-/-----5-5-5-5--/------10-10-10-10-/-----5-5-5-5-----------|
A|--7-7-7-7-/-----5-5-5-5--/------10-10-10-10-/-----5-5-5-5-----------|
E|--5-5-5-5-/-----3-3-3-3--/------8--8--8--8--/-----3-3-3-3-----------|


E|--5-5-5-5-/-----3-3-3-3--/------8--8--8--8--8--8--8--8--------------|
B|--5-5-5-5-/-----3-3-3-3--/------8--8--8--8--8--8--8--8--------------|
G|--6-6-6-6-/-----4-4-4-4--/------7--7--7--7--7--7--7--7--------------|
D|--7-7-7-7-/-----5-5-5-5--/------10-10-10-10-10-10-10-10-------------|
A|--7-7-7-7-/-----5-5-5-5--/------10-10-10-10-10-10-10-10-------------|
E|--5-5-5-5-/-----3-3-3-3--/------8--8--8--8--8--8--8--8--------------|

Bridge
E|-3---4/--5/---6--5/--6/---7--6/--7/---8---7/--8--------------------|
B|-3---4/--5/---6--5/--6/---7--6/--7/---8---7/--8--------------------|
G|-4---5/--6/---7--6/--7/---8--7/--8/---9---8/--9--------------------|
D|-5---6/--7/---8--7/--8/---9--8/--9/---10--9/--10-------------------|
A|-5---6/--7/---8--7/--8/---9--8/--9/---10--9/--10-------------------|
E|-3---4/--5/---6--5/--6/---7--6/--7/---8---7/--8--------------------|


Intro
Verse  x2
Chorus 
Verse  x2
Chorus x2
Verse  x2
Bridge x3
Chorus x2
Verse

Find any mistakes, please e-mail me at poolkill@hotmail.com



Tap to rate this tab
 
# A B C D E F G H I J K L M N O P Q R S T U V W X Y Z