Song name
# A B C D E F G H I J K L M N O P Q R S T U V W X Y Z

Dirty Heads - Antelope tab

Help us improve GuitareTab! Take a short survey!
Main Riff
E  |---------------------------|-5-x-5-------|----------------------------------|
B  |---------------------------|-5-x-5-------|----------------------------------|
G  |---8-x-8-xxxxx-8-x-8--xxxxx|-6-x-6-xxxxx-|----------------------------------|
D  |---9-x-9-xxxxx-9-x-9--xxxxx|-7-x-7-xxxxx-|----------------------------------|
A  |---9-x-9-xxxxx-9-x-9--xxxxx|-7-x-7-xxxxx-|-11--11-11-11-11--11--12--14------|
E  |---7-x-7-xxxxx-7-x-7--xxxxx|-5-x-5-xxxxx-|----------------------------------|


FIRST BREAKDOWN
|--------------|--------------------|-------------------|
|--------------|--------------------|-------------------|
|--------------|--11--11--9-9-7-----|------11----9------|  then main riff
|--9-9--9-9-9--|--11--11--9-9-7-----|-9----11----9------|
|--9-9--9-9-9--|--9---9---7-7-7-----|-9----9-----7------|
|--7-7--7-7-7--|--------------------|-7-----------------|


SECOND/THIRD BREAKDOWN
|-------------------|-------------------|
|-------------------|-------------------|
|--------------11/--|-------------------|       then main riff
|--9/----9/----11/--|---8-9-11---6-7-9--|
|--9/----9/-----9/--|-9---------7-------|
|--7/----7/---------|-------------------|


ANTELOPE
DIRTY HEADS
http://www.dirtyheads.com/

tabbed by
zo621
this sounds legit and this is my first tab, but if there's any problems email  cc6250@desales.edu
Related for Antelope tab