Song name
# A B C D E F G H I J K L M N O P Q R S T U V W X Y Z

Dirty Heads - Stand Tall tab

-------------------------------------------------------------------------------
			     SONG NAME: STAND TALL - Band Name: DIRTY HEADS
-------------------------------------------------------------------------------
Tabbed by: GRANNYPUNCHER
Email:

Tuning: STANDARD ACOUSTIC GUITAR

INTRO (upstrokes) 2X

e|--8----8----7----7----5----5----5----5-------------------------------------|
B|--8----8----8----8----5----5----5----5-------------------------------------|
G|--9----9----7----7----5----5----5----5-------------------------------------|
D|--10---10---9----9----7----7----7----7-------------------------------------|
A|--10---10---7----7----7----7----7----7-------------------------------------|
E|--8----8----7----7----5----5----5----5-------------------------------------|

VERSE 1
"say what you say....."
e|--8----8----7----7----5----5----5----5-------------------------------------|
B|--8----8----8----8----5----5----5----5-------------------------------------|
G|--9----9----7----7----5----5----5----5-------------------------------------|
D|--10---10---9----9----7----7----7----7-------------------------------------|
A|--10---10---7----7----7----7----7----7-------------------------------------|
E|--8----8----7----7----5----5----5----5-------------------------------------|

e|--8----8----7----7----5----5----5----5-------------------------------------|
B|--8----8----8----8----5----5----5----5-------------------------------------|
G|--9----9----7----7----5----5----5----5-------------------------------------|
D|--10---10---9----9----7----7----7----7-------------------------------------|
A|--10---10---7----7----7----7----7----7-------------------------------------|
E|--8----8----7----7----5----5----5----5-------------------------------------|

"I fell like drowning but the tides too low..."
e|----------------------5----5----5----5-------------------------------------|
B|--10---10---5----5----6----6----6----6-------------------------------------|
G|--10---10---5----5----7----7----7----7-------------------------------------|
D|--10---10---5----5----7----7----7----7-------------------------------------|
A|--8----8----7----7----5----5----5----5-------------------------------------|
E|---------------------------------------------------------------------------|


e|--8----8----7----7----5----5----5----5-------------------------------------|
B|--8----8----8----8----5----5----5----5-------------------------------------|
G|--9----9----7----7----5----5----5----5-------------------------------------|
D|--10---10---9----9----7----7----7----7-------------------------------------|
A|--10---10---7----7----7----7----7----7-------------------------------------|
E|--8----8----7----7----5----5----5----5-------------------------------------|

CHORUS

(guitar1)
"stand tall it gets a little better..."
e|--1----1----3----3----8-----8---5----5-------------------------------------|
B|--1----1----3----3----8-----8---5----5-------------------------------------|
G|--2----2----4----4----9-----9---5----5-------------------------------------|
D|--3----3----5----5----10---10---7----7-------------------------------------|
A|--3----3----5----5----10---10---7----7-------------------------------------|
E|--1----1----3----3----8----8----5----5-------------------------------------|

e|--1----1----3----3----5----5----5----5-------------------------------------|
B|--1----1----3----3----5----5----5----5-------------------------------------|
G|--2----2----4----4----5----5----5----5-------------------------------------|
D|--3----3----5----5----7----7----7----7-------------------------------------|
A|--3----3----5----5----7----7----7----7-------------------------------------|
E|--1----1----3----3----5----5----5----5-------------------------------------|

"stand tall it gets a little better..."
e|--1----1----3----3----8-----8---5----5-------------------------------------|
B|--1----1----3----3----8-----8---5----5-------------------------------------|
G|--2----2----4----4----9-----9---5----5-------------------------------------|
D|--3----3----5----5----10---10---7----7-------------------------------------|
A|--3----3----5----5----10---10---7----7-------------------------------------|
E|--1----1----3----3----8----8----5----5-------------------------------------|

e|--1----1----3----3----5----5----5----5-------------------------------------|
B|--1----1----3----3----5----5----5----5-------------------------------------|
G|--2----2----4----4----5----5----5----5-------------------------------------|
D|--3----3----5----5----7----7----7----7-------------------------------------|
A|--3----3----5----5----7----7----7----7-------------------------------------|
E|--1----1----3----3----5----5----5----5-------------------------------------|


"we can break it down, yes we can break it..."
e|--5----5----5----5--|
B|--5----5----5----5--|
G|--5----5----5----5--|
D|--7----7----7----7--|
A|--7----7----7----7--|
E|--5----5----5----5--|

(guitar 2)
"stand tall it gets a little better..."
e|----------------------------------------------|
B|----------------------------------------------|
G|------2----------4-----------9-----------5----|
D|--------3----------5-----------10----------7--|
A|----3----------5----------10-----------7------|
E|--1----------3----------8------------5--------|

"stand tall it gets a little better..."
e|----------------------|
B|----------------------|
G|------2----------4----|
D|--------3----------4--|
A|----3----------5------|
E|--1----------3--------|

VERSE 2

"I can only take so much..."
e|--8----8----7----7----5----5----5----5-------------------------------------|
B|--8----8----8----8----5----5----5----5-------------------------------------|
G|--9----9----7----7----5----5----5----5-------------------------------------|
D|--10---10---9----9----7----7----7----7-------------------------------------|
A|--10---10---7----7----7----7----7----7-------------------------------------|
E|--8----8----7----7----5----5----5----5-------------------------------------|

e|--8----8----7----7----5----5----5----5-------------------------------------|
B|--8----8----8----8----5----5----5----5-------------------------------------|
G|--9----9----7----7----5----5----5----5-------------------------------------|
D|--10---10---9----9----7----7----7----7-------------------------------------|
A|--10---10---7----7----7----7----7----7-------------------------------------|
E|--8----8----7----7----5----5----5----5-------------------------------------|

"they came to watch us fall...."
e|----------------------5----5----5----5-------------------------------------|
B|--10---10---5----5----6----6----6----6-------------------------------------|
G|--10---10---5----5----7----7----7----7-------------------------------------|
D|--10---10---5----5----7----7----7----7-------------------------------------|
A|--8----8----7----7----5----5----5----5-------------------------------------|
E|---------------------------------------------------------------------------|


e|--8----8----7----7----5----5----5----5-------------------------------------|
B|--8----8----8----8----5----5----5----5-------------------------------------|
G|--9----9----7----7----5----5----5----5-------------------------------------|
D|--10---10---9----9----7----7----7----7-------------------------------------|
A|--10---10---7----7----7----7----7----7-------------------------------------|
E|--8----8----7----7----5----5----5----5-------------------------------------|

CHORUS

(guitar1)
"stand tall it gets a little better..."
e|--1----1----3----3----8-----8---5----5-------------------------------------|
B|--1----1----3----3----8-----8---5----5-------------------------------------|
G|--2----2----4----4----9-----9---5----5-------------------------------------|
D|--3----3----5----5----10---10---7----7-------------------------------------|
A|--3----3----5----5----10---10---7----7-------------------------------------|
E|--1----1----3----3----8----8----5----5-------------------------------------|

e|--1----1----3----3----5----5----5----5-------------------------------------|
B|--1----1----3----3----5----5----5----5-------------------------------------|
G|--2----2----4----4----5----5----5----5-------------------------------------|
D|--3----3----5----5----7----7----7----7-------------------------------------|
A|--3----3----5----5----7----7----7----7-------------------------------------|
E|--1----1----3----3----5----5----5----5-------------------------------------|

"stand tall it gets a little better..."
e|--1----1----3----3----8-----8---5----5-------------------------------------|
B|--1----1----3----3----8-----8---5----5-------------------------------------|
G|--2----2----4----4----9-----9---5----5-------------------------------------|
D|--3----3----5----5----10---10---7----7-------------------------------------|
A|--3----3----5----5----10---10---7----7-------------------------------------|
E|--1----1----3----3----8----8----5----5-------------------------------------|

e|--1----1----3----3----5----5----5----5-------------------------------------|
B|--1----1----3----3----5----5----5----5-------------------------------------|
G|--2----2----4----4----5----5----5----5-------------------------------------|
D|--3----3----5----5----7----7----7----7-------------------------------------|
A|--3----3----5----5----7----7----7----7-------------------------------------|
E|--1----1----3----3----5----5----5----5-------------------------------------|


"we can break it down, yes we can break it..."
e|--5----5----5----5--|
B|--5----5----5----5--|
G|--5----5----5----5--|
D|--7----7----7----7--|
A|--7----7----7----7--|
E|--5----5----5----5--|

BRIDGE 4X

"pardon me if i'm too loud...."
e|--8----7----7----|
B|--10---9----5----|
G|--10---7----5----|
D|--10---9----5----|
A|--8----7----7----|
E|------------5----|

CHORUS

(guitar1)
"stand tall it gets a little better..."
e|--1----1----3----3----8-----8---5----5-------------------------------------|
B|--1----1----3----3----8-----8---5----5-------------------------------------|
G|--2----2----4----4----9-----9---5----5-------------------------------------|
D|--3----3----5----5----10---10---7----7-------------------------------------|
A|--3----3----5----5----10---10---7----7-------------------------------------|
E|--1----1----3----3----8----8----5----5-------------------------------------|

e|--1----1----3----3----5----5----5----5-------------------------------------|
B|--1----1----3----3----5----5----5----5-------------------------------------|
G|--2----2----4----4----5----5----5----5-------------------------------------|
D|--3----3----5----5----7----7----7----7-------------------------------------|
A|--3----3----5----5----7----7----7----7-------------------------------------|
E|--1----1----3----3----5----5----5----5-------------------------------------|

"stand tall it gets a little better..."
e|--1----1----3----3----8-----8---5----5-------------------------------------|
B|--1----1----3----3----8-----8---5----5-------------------------------------|
G|--2----2----4----4----9-----9---5----5-------------------------------------|
D|--3----3----5----5----10---10---7----7-------------------------------------|
A|--3----3----5----5----10---10---7----7-------------------------------------|
E|--1----1----3----3----8----8----5----5-------------------------------------|

e|--1----1----3----3----|
B|--1----1----3----3----|
G|--2----2----4----4----|
D|--3----3----5----5----|
A|--3----3----5----5----|
E|--1----1----3----3----|


"we can break it down, we can break it..."
e|--1----1----3----3----8-----8---5----5-------------------------------------|
B|--1----1----3----3----8-----8---5----5-------------------------------------|
G|--2----2----4----4----9-----9---5----5-------------------------------------|
D|--3----3----5----5----10---10---7----7-------------------------------------|
A|--3----3----5----5----10---10---7----7-------------------------------------|
E|--1----1----3----3----8----8----5----5-------------------------------------|

e|--1----1----3----3----5----5----5----5-------------------------------------|
B|--1----1----3----3----5----5----5----5-------------------------------------|
G|--2----2----4----4----5----5----5----5-------------------------------------|
D|--3----3----5----5----7----7----7----7-------------------------------------|
A|--3----3----5----5----7----7----7----7-------------------------------------|
E|--1----1----3----3----5----5----5----5-------------------------------------|

CHORUS

(guitar1)
"stand tall it gets a little better..."
e|--1----1----3----3----8-----8---5----5-------------------------------------|
B|--1----1----3----3----8-----8---5----5-------------------------------------|
G|--2----2----4----4----9-----9---5----5-------------------------------------|
D|--3----3----5----5----10---10---7----7-------------------------------------|
A|--3----3----5----5----10---10---7----7-------------------------------------|
E|--1----1----3----3----8----8----5----5-------------------------------------|

e|--1----1----3----3----5----5----5----5-------------------------------------|
B|--1----1----3----3----5----5----5----5-------------------------------------|
G|--2----2----4----4----5----5----5----5-------------------------------------|
D|--3----3----5----5----7----7----7----7-------------------------------------|
A|--3----3----5----5----7----7----7----7-------------------------------------|
E|--1----1----3----3----5----5----5----5-------------------------------------|

"we can break it down, yes we can break it..."
e|--5----5----5----5--|
B|--5----5----5----5--|
G|--5----5----5----5--|
D|--7----7----7----7--|
A|--7----7----7----7--|
E|--5----5----5----5--|

OUTRO 2x

e|--5----5----5----5--|
B|--5----5----5----5--|
G|--5----5----5----5--|
D|--7----7----7----7--|
A|--7----7----7----7--|
E|--5----5----5----5--|

DIRTY HEADS NEW ALBUM, "ANY PORT IN A STORM" OUT SOON!!


| /  slide up
| \  slide down
| h  hammer-on
| p  pull-off
| ~  vibrato
| +  harmonic
| x  Mute note
===============================================================================
Tap to rate this tab
# A B C D E F G H I J K L M N O P Q R S T U V W X Y Z