Song name
# A B C D E F G H I J K L M N O P Q R S T U V W X Y Z

Dirty Heads - Insomnia tab

Help us improve GuitareTab! Take a short survey!
Insomnia
By: DirtyHeads

note.  this is not an exact tab.  its just a guess but i think its pretty close.



Intro/ Verses
E|-------------------------|------------------------|
B|-------------------------|------------------------|
G|-------------------------|------------------------|
D|-------------12----------|------------12----------|
A|----11-12-14----14-12-11-|---11-12-14----14-12-11-|
E|-12----------------------|12----------------------|

E|-----------------------|-----------------------|
B|-----------------------|-----------------------|
G|-----------------------|-----------------------|
D|------------10---------|------------10---------|
A|----9-10-12----12-10-9-|----9-10-12----12-10-9-|
E|-10--------------------|-10--------------------|



Chords for chorus

Em     D      a     Em

0      2      0     0
0      3      2     0
1      2      2     1
2      0      2     2
2      x      0     2
0      x      x     0

Related for Insomnia tab