Song name
# A B C D E F G H I J K L M N O P Q R S T U V W X Y Z

Dirty Heads - No Time For Yall tab


Artist: Dirty Heads
Song: No Time For Ya'll
Album: Dirty Demo


 ok, so i can honestly say Dirty Heads are one of the best bands ever. if you do not 
Dirty Demo you should definitely get it, its really worth having haha. this is a beast 
hope u like it.

           Tabs by: Austin Matthew

h: hammer on
p: pull off
/: slide up neck
\: slide down neck

|---------------------------------------------------|
|---------------------------------------------------|
|----------9-11h-9---9-11hp-------------------------| intro
|----------9-----9----------11--9/-11\-9/-11\-9-9---|
|---9-11h-----------------------9/-11\-9/-11\-9-9---|
|---------------------------------------------------|


|-----------------------------------------------------------------|
|-----------------------------------------------------------------|
|-----------9-11h-9--9-11h-11/-13--9-11hp-------------------------|
|--------9--9-----9--9--------------------11--9/-11\-9/-11\-9-9---|
|---9-11--------------------------------------9/-11\-9/-11\-9-9---|
|-----------------------------------------------------------------|


|------------------------------------------------------|
|------------------------------------------------------| this is played
|-------------------------------------------9--9-9-9---| throughout the
|---9-x-9--x-x---9-x-9-x-x---9-x-9--x-x--9--9--9-9-9---| song.
|---9-x-9--x-x---9-x-9-x-x---9-x-9--x-x--9--7--7-7-7---|
|---7-x-7--x-x---7-x-7-x-x---7-x-7--x-x--7-------------|


 listen to it a bit. it took me a while to get the timing down.hope you like the song.
Tap to rate this tab
# A B C D E F G H I J K L M N O P Q R S T U V W X Y Z