Song name
# A B C D E F G H I J K L M N O P Q R S T U V W X Y Z

Dirty Heads - Gimme The Mic tab

Artist: Dirty Heads
Song: Gimme the Mic
Album: Dirty Demo

Once again i was messing around on guitar while listening to Gimme the Mic. i listened
it a few times and figured out how to play it by ear. haha its a sick song off the album.
i defiantly recommend getting it. hope u like the tab.
           Tab by: Austin Matthew

|-------------------------------------------------|
|-------------------------------------------------|
|-------------------------------------------------|
|-------------------------------------------------|  intro
|---7-7----7--3--3-3-------7-7----7--3--3-3-------|
|--------5-----------5-3--------5-----------5-3---|


|---5-5---3-3---|
|---5-5---3-3---|
|---6-6---4-4---|  This is played over this intro and throughout the song
|---7-7---5-5---|
|---7-7---5-5---|
|---5-5---3-3---|

well i hope u liked it.
Tap to rate this tab
# A B C D E F G H I J K L M N O P Q R S T U V W X Y Z