Song name
# A B C D E F G H I J K L M N O P Q R S T U V W X Y Z

Dirty Heads - Sails To The Wind tab

Alright, this is just a rough guide.

The intro chords are C#m, A and G# just play around with them.

"one by one..."

   pm       pm
e------------------------------------|
b-----5p4------5p4-------------------|
g----6---6----6---6----6----5--------|
d--6-6------6-6--------7----6--------|
a--4-4------4-4--------7----6-467467-|
e--------------------5----54---------|

"listen to my lyrics..."

   pm-------------------------------|
e-----------------------------------|
b---5--5----------------------------|
g---6--6-------------6--------------|
d--66-66-6-----------7-----6--------|
a--44-44-4-6-7-6-4---7--7--6----12--|
e------------------5-5-5--54-4////--|

As I said, this is rough and I havn't included the rhythm but it gives you the basic idea.

Cheers
Tap to rate this tab
# A B C D E F G H I J K L M N O P Q R S T U V W X Y Z