Song name
# A B C D E F G H I J K L M N O P Q R S T U V W X Y Z

Dirty Heads - Sails To The Wind tab

No idea if this is %100 correct but it sounds right on the money. Enjoy

Intro:
----4-------------------------------------5-4-------------|
----5-4h5-4-------------------------------5-4-------------|
----6------6-4-4h6p4---4h6-4h6p4--------6-6-5-------------|
----6----------------6-----------6/7---7--7-6---6---6---6-|
--4-4---------------------------------7---7-6--6---6---6--|
-4--4--------------------------------5----5-4-4---4---4---|


----4-------------------------------------5-4-------------|
----5-4h5-4-------------------------------5-4-------------|
----6------6-4-4h6p4---4h6-4h6p4--------6-6-5-------------|
----6----------------6-----------6/7---7--7-6---6---6---6-|
--4-4---------------------------------7---7-6--6---6---6--|
----4--------------------------------5----5-4-4---4---4---|

"One by one..." Verse
----4----------4--------------5---5---4---------|
----5-4h5-4----5-4h5-4--------5---5---4---------|
----6----------6-------6------6---6---5---------|
----6----------6--------6-6/7-7---7---6---6---6-|
--4-4--------4-4--------------7---7---6--6---6--|
----4-------4--4--------------5-5-5-4-4-4---4---|


"Listen to my lyrics, they'll keep you afloat"
---4---4-----------------5---5---4---4-|
---5---5-----------------5---5---4---4-|
---6---6-----------------6---6---5---5-|
---6---6-----------------7---7---6---6-|
-4-4-4-4-4-6-7-6-4-------7---7---6---6-|
---4---4-----------4-4/5-5-5-5-4-4-4-4-|

I'm pretty sure this is how it goes for the whole song. There are a few tweaks and tiny 
that i don't know but for the most part this should get you through it. If you notice 
off, let me know. Playax1992@yahoo.com
Tap to rate this tab
# A B C D E F G H I J K L M N O P Q R S T U V W X Y Z