Dirty Heads - Lay Me Down tab

-------------------------------------------------------------------------------
			     Lay Me Down SOLO - Dirty Heads
-------------------------------------------------------------------------------
Tabbed by:Emicmusic
YOUTUBE: www.youtube.com/emicmusic

Hello everyone! This is my first post and I made this because of a video on youtube.

http://www.youtube.com/watch?v=X6OqOXnsNV8

A lot of the comments said that they couldn't figure out the solo at the end of the 
song so, here it is! I won't bother putting up the rest of the song because the other 
tabs are good.

Tuning: EADGBe

e|-----------------|----------------|------------------------|
B|-----------------|----------------|------------------------|
G|-----------------|--5/7-----------|------------------------|
D|------5-5---5--7-|--7/9-7-5---575-|------5-5---5---5h7-5h7-|
A|--5/7-----7------|----------7-----|--5/7-----7---7---------|
E|-----------------|----------------|------------------------|

e|---------------------|------------------|----------------|
B|---------------------|------------------|----------------|
G|---------------------|------------------|--5/7-----------|
D|--7/9---7-5----5-7-5-|------5-5---5---7-|--7/9-7-5---575-|
A|------------7--------|--5/7-----7---7---|----------7-----|
E|---------------------|------------------|----------------|

e|------------------------|-----------------------|
B|------------------------|-----------------------|
G|------------------------|-----------------------|
D|------5-5---5---5h7-5h7-|--5/7--5---5-----------|
A|--5/7-----7---7---------|---------7---7-5-------|
E|------------------------|-----------------7-5-3-|

If you like this song and this tab, check my band out on Youtube! (Link above)


************************************

| /   slide up
| h   hammer-on

************************************
Tap to rate this tab
 
# A B C D E F G H I J K L M N O P Q R S T U V W X Y Z