Song name
# A B C D E F G H I J K L M N O P Q R S T U V W X Y Z

Dirty Heads - Driftin tab

Should be pretty solid! Let me know if somethings wrong.



INTRO

E------------------------------------------------------------|
B---7--7--7h8--10p8------------------------------------------|
G---7--7--7----7---------------------------------------------|
D---7--7--7----7---------------------------------------------|
A------------------------------------------------------------|
E------------------------------------------------------------|

Riff A

E------------------------------||----------------------------------|
B-----------7--7h9--9--9p7-----||------------7--9/11--11p9p7-------|
G---7--7h9------------------9--||----7--7h9------------------------|
D------------------------------||----------------------------------|
A------------------------------||----------------------------------|
E------------------------------||----------------------------------|


Chords 

D           A     C                    G      
Driftin' so long, from myself and from the pain. 

D           A     C                      G
Driftin' so long, I think I found better way.
Tap to rate this tab
 
# A B C D E F G H I J K L M N O P Q R S T U V W X Y Z