Dirty Heads - Driftin tab

-------------------------------------------------------------------------------
			     "Driftin'" - Dirty Heads
-------------------------------------------------------------------------------
Tabbed by:Plute8231
Email:ajp8231@gmail.com

Tuning:Standard

Intro:

e|---------------------------------------------------------------------------|
B|----7----------7h9--------10p9------7h9----7h9-----------------------------|
G|----7----------7-----------7--------7------7-------------------------------|
D|---------------------------------------------------------------------------|
A|---------------------------------------------------------------------------|
E|---------------------------------------------------------------------------|

Verse:

("Well I been driftin', liftin' my mind with these spliffs and...")

e|---------------------------------------------------------------------------|
B|---------------------------------------------------------------------------|
G|---7---------7--9--7h9p7---------------------------------------------------|
D|---7----7/9----------------7-----------------------------------------------|
A|---5-----------------------------------------------------------------------|
E|---------------------------------------------------------------------------|

e|---------------------------------------------------------------------------|
B|---------------------------------------------------------------------------|
G|---7----------7--9--9/11-9/7----9p7----------------------------------------|
D|---7----7/9----------------------------------------------------------------|
A|---5-----------------------------------------------------------------------|
E|---------------------------------------------------------------------------|

Pre-chorus:

("It always seemed like such a dream to me...")

e|---------------------------------------------------------------------------|
B|---------------------------------------------------------------------------|
G|---------------------------------------------------------------------------|
D|--7---------3--------------------------------------------------------------|
A|--7---------3--------------------------------------------------------------|
E|--5---------5--------------------------------------------------------------|

Chorus:

("Driftin', so long...)

e|---------------------------------------------------------------------------|
B|---------------------------------------------------------------------------|
G|--7---------4--------------------------------------------------------------|
D|--7----7----4----5---------------------------------------------------------|
A|--5----7----2----5---------------------------------------------------------|
E|-------5---------3---------------------------------------------------------|



************************************

| /   slide up
| \   slide down
| h   hammer-on
| p   pull-off
| ~   vibrato
| +   harmonic
| x   Mute note
| b   Bend
| pb  Pre-bend
| br  Bend release
| pbr Pre-bend release
| brb Bend release bend

************************************
Tap to rate this tab
 
# A B C D E F G H I J K L M N O P Q R S T U V W X Y Z