Song name
# A B C D E F G H I J K L M N O P Q R S T U V W X Y Z

Dirty Heads - Antelope tab

Main Riff

e---7-X-7-7---7-X-7-7----9--X-9--9----7-X-7-7---------------------------------|
b---7-X-7-7---7-X-7-7----9--X-9--9----7-X-7-7---------------------------------|
g---8-X-8-8---8-X-8-8----11-X-11-11---9-X-9-9---------------------------------|
d---9-X-9-9---9-X-9-9----11-X-11-11---9-X-9-9---------------------------------|
a---9-X-9-9---9-X-9-9----9--X-9--9----7-X-7-7--11-11-11-11-11-12-14-----------|
E---7-X-7-7---7-X-7-7----X--X-X--X----X-X-X-X---------------------------------|

Bridge Riff..."Because the west coast know how to kill it yo and yall know when it's time
                                  ...up all night until its tight
e--7--7--7-7-7----9--9---7-7-7----7--7--9---7--------------------------------|
b--7--7--7-7-7----9--9---7-7-7----7--7--9---7--------------------------------|
g--8--8--8-8-8----11-11--9-9-9----8--8--11--9--------------------------------|
d--9--9--9-9-9----11-11--9-9-9----9--9--11--9--------------------------------|
a--9--9--9-9-9----9--9---7-7-7----9--9--9---7--------------------------------|
E--7--7--7-7-7----x--x---x-x-x----7--7--x---x--------------------------------|

Turn Around....."He had a dirty a** head from the beach and the sand

e-----------------------------------------------------------------------------|
b-----------------------------------------------------------------------------|
g-----------------------------------------------------------------------------|
d----9-10-12--------7-8-10----------------------------------------------------|
a--10-------------8-----------------------------------------------------------|
E-----------------------------------------------------------------------------|


Ok thats pretty much all of this simply but good dirty heads song....if you haven't 
of them u should check out their first album they're really good and are touring with sublime.

Have fun
Tap to rate this tab
 
# A B C D E F G H I J K L M N O P Q R S T U V W X Y Z