Dirty Heads - Lay Me Down tab

-------------------------------------------------------------------------------
			     Lay Me Down - The Dirty Heads
-------------------------------------------------------------------------------
Tabbed by: TheOmegaKitten
Email: yea right

Tuning: Standard

Hey heres the solo/outro for an awesome song. Its pretty easy to get the timing down, 
listen to
it a couple times. And for those who are playing with a friend (its nice to have 
the bar
chords along with it are Gmaj and Dmaj. Just make sure to have him end on G when you hit 
three.

e|-------------------|--------------------|
B|-------------------|--------------------|
G|-------------------|--------------------|
D|-----5-5h7--5-5h7--|--7/9-7-5----5h7-5--|
A|--7----------------|-----------7--------|
E|-------------------|--------------------| x3

Because the song fades out, when they play it live, they end it like this.

e|-------------------|--------------------|
B|-------------------|--------------------|
G|-------------------|--------------------|
D|-----5-5h7--5-5h7--|--7/9-7-5-----------|
A|--7----------------|-----------7-5------|
E|-------------------|---------------7-3--|

Hey you did it perfectly! Please comment if you have corrections or questions and please 
with
five stars ;)

************************************

| /   slide up
| \   slide down
| h   hammer-on
| p   pull-off
| ~   vibrato
| +   harmonic
| x   Mute note
| b   Bend
| pb  Pre-bend
| br  Bend release
| pbr Pre-bend release
| brb Bend release bend

************************************
Tap to rate this tab
 
# A B C D E F G H I J K L M N O P Q R S T U V W X Y Z