Song name
# A B C D E F G H I J K L M N O P Q R S T U V W X Y Z

Dirty Heads - Rub-a-dub Style tab

-----------------------------------------------------------------------------
			     Rub-A-Dub Style by The Dirty Heads
-----------------------------------------------------------------------------
Tabbed by: Turpenator
Email:

Tuning: Standard EADGBe

Intro

e|------------------------------------------------|
B|------------------------------------------------|
G|-----------------------------------------7-7/9--|
D|-------------------7---x-x-x-7-7-7-7-7-7--------|
A|-x-x-x-7-7-7-7-7-7---7-x-x-x-5------------------|
E|-x-x-x-5----------------------------------------|

e|-----------------------------------------------|
B|-----------------------------------------------|
G|-----------------------------------------------|
D|-------------------7----7---7--7-9-9-----------|
A|-x-x-x-7-7-7-7-7-7---7--x-x-5-x5/7-7-----------|
E|-x-x-x-5---------------------------------------|


The rest of it is pretty simple, but the strumming pattern changes a lot, so 
listen for the changes
 
Verse

   A   D   E
D|-----7-7/7--|	
A|-7-7-5-5/7--|
E|-5-5--------|


Chorus

   A       D    
D|---------7-7-7-7-|	
A|-7-7-7-7-5-5-5-5-|
E|-5-5-5-5---------|


Bridge

D|---------------7---7-9-9-9------|
A|-7-x-7--7-x-7--5-x-5-7-7-7-7----|
E|-5-x-5--5-x=5--------------5----|


************************************
| /   slide up
| \   slide down
| x   Mute note
************************************

So thats it, enjoy!
Tap to rate this tab
 
# A B C D E F G H I J K L M N O P Q R S T U V W X Y Z