Song name
# A B C D E F G H I J K L M N O P Q R S T U V W X Y Z

Dirty Heads - Driftin tab

Intro:
e---------------------------------------------------|
B---7--7----7h8--10p8-----7h8--10p8-----------------|
G---7--7----7----7--------7----7--------------------|
D---7--7----7----7--------7----7--------------------|
A---------------------------------------------------|
E---------------------------------------------------|
Verse:
e---------------------------------------------------|
B---------------------------------------------------|
G-----------7--7h9---7h9p7--------------------------|
D---7--7h9------------------9-----------------------|
A---------------------------------------------------|
E---------------------------------------------------|

e---------------------------------------------------|
B---------------------------------------------------|
G-----------7--7h9--9s11--9s7-----------------------|
D---7--7h9---------------------9--------------------|
A---------------------------------------------------|
E---------------------------------------------------|
Chorus:
D              A  C                           G
Driftin' so long, from myself and from the pain.
D              A  C          B              A
Driftin' so long, I think I found better way.

First tab so be kind to my self asteem 5 stars lol
Tap to rate this tab
 
# A B C D E F G H I J K L M N O P Q R S T U V W X Y Z