Song name
# A B C D E F G H I J K L M N O P Q R S T U V W X Y Z

Dirty Heads - Antelope tab

                             Antelope - Dirty Heads
Tabbed by: Joe WItkowski
Email: Kangaroojew9@aim.com

Tuning: Standard

Add muting where you feel neccesary

Part 1
      1   e   +   a   2   e   +   a
e|----7---x---x---7---x---x---7---x--|
B|----7---x---x---7---x---x---7---x--|
G|----8---x---x---8---x---x---8---x--|
D|----9---x---x---9---x---x---9---x--|  x2
A|----9---x---x---9---x---x---9---x--|
E|----7---x---x---7---x---x---7---x--|

      1   e   +   a   2   e   +   a   3
e|----9---x---x---9---x---x---9---x---7--------------|
B|----9---x---x---9---x---x---9---x---7--------------|
G|----11--x---x---11--x---x---11--x---9--------------|
D|----11--x---x---11--x---x---11--x---9--6666-6-7-9--|
A|----9---x---x---9---x---x---9---x---7--------------|
E|--------x---x-------x---x-------x------------------|

Repeat part 1 until part 2
Part 2
e|----7---7---7-7-7---9---9----7-7-7---7----7----9----7----|
B|----7---7---7-7-7---9---9----7-7-7---7----7----9----7----|
G|----8---8---8-8-8---11--11---9-9-9---8----8----11---9----|
D|----9---9---9-9-9---11--11---9-9-9---9----9----11---9----|
A|----9---9---9-9-9---9---9----7-7-7---9----9----9----7----|
E|----7---7---7-7-7--------------------7----7--------------|

Repeat part 1 and until part 3
Part 3
e|----7/---7-7/----7-9/-------------------------|
B|----7/---7-7/----7-9/-------------------------|
G|----8/---8-8/----8-11/------------------------|
D|----9/---9-9/----9-11/------8-9-11-----6-7-9--|
A|----9/---9-9/----9-9/-----9----------7--------|
E|----7/---7-7/----7----------------------------|
Tap to rate this tab
 
# A B C D E F G H I J K L M N O P Q R S T U V W X Y Z