Song name
# A B C D E F G H I J K L M N O P Q R S T U V W X Y Z

Dirty Heads - Lay Me Down tab

                                        Dirty Heads ft Rome
                                            Lay Me Down

tabbed by: Sam
I take no credit its all on this link below i just wanted to write it down  and share it.
http://www.youtube.com/watch?v=X6OqOXnsNV8

DUDDY'S SOLO PART(s)


e-------------------------------------|
b-------------------------------------|
g-------------------------------------|
d--------9----------------------------|     X2
a--7--7----7----------9--9--9---------|
E---------------5-5/7-----------7-----|


e-------------------------------------------|
b-------------------------------------------|
g-------------------------------------------|
d--2/5--5----5----7--7----9--7--5---5--7--5-|   X4
a----------7---7------------------7---------|
e-------------------------------------------|
Tap to rate this tab
# A B C D E F G H I J K L M N O P Q R S T U V W X Y Z