Song name
# A B C D E F G H I J K L M N O P Q R S T U V W X Y Z

Dirty Heads - Easy tab

E-------------------------|
B-------------------------|
G-------------------------|
D-------------------------|
A-------------------------|
E-2-2-2-2-2-2-2-2-2-2-2-2-|

Do this palm muted from 0:00 to 0:20

Then the first verse:
E-2--2--2--2-|
B-2--2--4--4-|
G-3--3--4--4-|
D-4--4--4--4-|
A-4--4--2--2-|
E-2--2--2--2-|

Then the main chorus:
E-2-2-2-2-7-7-5-5-|
B-2-2-4-4-9-9-7-7-|
G-3-3-4-4-9-9-7-7-|
D-4-4-4-4-9-9-7-7-|
A-4-4-2-2-7-7-5-5-|
E-2-2-2-2-7-7-5-5-|

Repeat first verse:
E-2--2--2--2-|
B-2--2--4--4-|
G-3--3--4--4-|
D-4--4--4--4-|
A-4--4--2--2-|
E-2--2--2--2-|

Then Second verse:
E-2-2-2-2-2-2-2-2-|
B-4-4-4-4-2-2-2-2-|
G-4-4-4-4-4-4-4-4-|
D-4-4-4-4-4-4-4-4-|
A-2-2-2-2-3-3-3-3-|
E-2-2-2-2-2-2-2-2-|

Then the palm muted begining:
E-------------------------|
B-------------------------|
G-------------------------|
D-------------------------|
A-------------------------|
E-2-2-2-2-2-2-2-2-2-2-2-2-|

Then end with the main chorus:
E-2-2-2-2-7-7-5-5-|
B-2-2-4-4-9-9-7-7-|
G-3-3-4-4-9-9-7-7-|
D-4-4-4-4-9-9-7-7-|
A-4-4-2-2-7-7-5-5-|
E-2-2-2-2-7-7-5-5-|

AND THAT'S THE WHOLE SONG!
Tabbed By "Al" submitted to ultimate guitar.com
Tap to rate this tab
# A B C D E F G H I J K L M N O P Q R S T U V W X Y Z