Song name
# A B C D E F G H I J K L M N O P Q R S T U V W X Y Z

Dirty Heads - Spread Too Thin tab

e|-5--5--4--2--5--5--4--7------------------------------------|
B|-5--7--6--4--5--7--6--9------------------------------------|
G|-6--7--6--4--6--7--6--9------------------------------------|
D|-7--7--6--4--7--7--6--9------------------------------------|
A|-7--5--4--2--7--5--4--7------------------------------------|
E|-5--5--4--2--5--5--4--7------------------------------------|

Intro: this goes twice

e|-5-
B|-5-
G|-6-
D|-7-
A|-7-
E|-5-

Play this several times.

e|-2-2-5-5-2-2-5-5-|
B|-2-2-5-5-2-2-5-5-|
G|-2-2-6-6-2-2-6-6-|
D|-4-4-7-7-4-4-7-7-|
A|-4-4-7-7-4-4-7-7-|
E|-2-2-5-5-2-2-5-5-|

Do this several times.

e-5-5-5-5555--4-4-4-7777--5-5-5-5555--4-4-6-|
B-5-5-5-7777--6-6-6-9999--5-5-5-7777--6-6-6-|
G-6-6-6-7777--6-6-6-9999--6-6-6-7777--6-6-6-| Pause
D-7-7-7-7777--6-6-6-9999--7-7-7-7777--6-6-6-|
A-7-7-7-5555--4-4-4-7777--7-7-7-5555--4-4-4-|
E-5-5-5-5555--4-4-4-7777--5-5-5-5555--4-4-4-|

do this above here once, then to chorus below:

e-5-5-5-5-4-4-2-2--5-5-5-5-4-4-7-7-|
B-5-5-7-7-6-6-4-4--5-5-7-7-6-6-9-9-|
G-6-6-7-7-6-6-4-4--6-6-7-7-6-6-9-9-|
D-7-7-7-7-6-6-4-4--7-7-7-7-6-6-9-9-|
A-7-7-5-5-4-4-2-2--7-7-5-5-4-4-7-7-|
E-5-5-5-5-4-4-2-2--5-5-5-5-4-4-7-7-|

The main chorus right there ^^^

Then, back to this a few times

e|-5-
B|-5-
G|-6-
D|-7-
A|-7-
E|-5-

And then you just go back in order, with a little bit of mixing, but that's all the parts!

"Spread Too Thin" by The Dirty Heads

Tabbed by "Al" sent to ultimateguitar.com

Peace out, have fun jammin away!
Tap to rate this tab
 
# A B C D E F G H I J K L M N O P Q R S T U V W X Y Z