Song name
# A B C D E F G H I J K L M N O P Q R S T U V W X Y Z

Dirty Heads - Believe tab

I was looking around for tabs to this song, but I couldn't find a correct one ANYWHERE. 
It is incredibly simple, so I tabbed it. It's pretty much perfect.
-Adrian Mora

h = hammer on

p = pull off

#/# = slide

|#| = harmonics (you don't have to do them, just for a more accurate sound)

Intro:

e-------------------------------------------------------------------|
b-------------------------------------------------------------------|
g------------------------------------------5------7---|12|----------|
d----------5--(5)--5h7p5--------------5/7-----7/9-----|12|----------|
a------5/7----------------7--------3-----------------------(10)-----|
e----3--------------------------------------------------------------|
                                                       G
e-------------------------------------------------------------------|
b------------------------------------------5------------------------|
g-------------------------------------5/7-----7/9/7----4------------|
d----------5--(5)--5h7p5-----------3----------7/9/7----5------------|
a------5/7---------------7-----------------------------5------------|
e----3-------------------------------------------------3------------|

The rest of the song is basically picking around these chords:

        G            C            D
e-------3------------0------------2---------------------------------|
b-------3------------1------------3---------------------------------|
g-------4------------0------------2---------------------------------|
d-------5------------2------------0---------------------------------|
a-------5------------3------------0---------------------------------|
e-------3------------0------------0---------------------------------|

-Tabbed by Adrian Mora
Tap to rate this tab
# A B C D E F G H I J K L M N O P Q R S T U V W X Y Z