Song name
# A B C D E F G H I J K L M N O P Q R S T U V W X Y Z

Dirty Heads - Sails To The Wind tab

This Is My First Tab But I Played The Song As I Heard It. It Sounds Right So Give It A Try


Tabs By QANNON





(h)-Hammer On
(p)-Pull Off
(x)- Mute
(x/x)-Slide

Intro:
-------0----------------------------------5-5-4-------------|
----5----5--------------------------------5-5-4-------------|
----6------6-4-4h6p4---4h6-4h6p4----------6-6-5---5---5---5-|
----6----------------6----------6-6/7---7-7-7-6-------------|
--4-4----------------------------------7--7-7-6--6---6---6--|
-4--4-----------------------------4/5-5---7-5-4-4---4---4---|


------------------------------------------5-5-4-------------|
----5-4h5p4-------------------------------5-5-4-------------|
----6------6-4-4h6p4---4h6-4h6p4----------6-6-5---5---5---5-|
----6----------------6----------6-6/7---7-7-7-6-------------|
--4-4----------------------------------7--7-7-6--6---6---6--|
----4-----------------------------4/5-5---5-5-4-4---4---4---|

"One By One, Yes They Will Turn Their Heads...."
------------x--------------------5---5---4---------|
----5-4h5p4-x-----5-4h5-4--------5---5---4---------|
----6-------x-----6-------6------6---6---5---5---5-|<<<<< X4
----6-------x-----6--------6-6/7-7---7---6---------|
--4-4-------x---4-4--------------7---7---6--6---6--|
----4-------x--4--4----------4/5-5---5-5-4-4---4---|


"Listen To My Lyrics And They'll Keep You Afloat..."
-----4----4-------------------5----5-----4----------4|R
-----5----5-------------------5----5-----4----------5|E F
-----6----6-------------------6----6-----5----------6|P R^
-----6----6-------------------7--7-7-----6--6/7-6---6|E O^
---4-4--4-4--4--4-6-7-6-4-----7-7--7-----6-6------4-4|A M
--4--4-4--4-4-------------4/5-5----5-5-4-4----------4|T 
           ^REPEAT HERE x4
Tap to rate this tab
 
# A B C D E F G H I J K L M N O P Q R S T U V W X Y Z