Song name
# A B C D E F G H I J K L M N O P Q R S T U V W X Y Z

Dirty Heads - Antelope tab

-------------------------------------------------------------------------------
                             Antelope - Dirty Heads
-------------------------------------------------------------------------------
Tabbed by:
E-mail:

Tuning: standard

Intro/Verse

mess around with the rhythm. slightly palm muted
e|-----------------------------------------------------------------------------|
B|-----------------------------------------------------------------------------|
G|---- 7---7--------7--7------- 10--10--10---8---------------------------------|
D|---- 8---8--8--8--8--8-x--8-- 10--10--10---8---------------------------------|
A|---- 8---8--8--8--8--8-x--8-- 8---8---8----6---------------------------------|
E|-----6---6--6--6--6--6-x--6--------------------------------------------------|

e|-----------------------------------------------------------------------------|
B|-----------------------------------------------------------------------------|
G|----7-7-7-7-7-8-10-----------------------------------------------------------|
D|-----------------------------------------------------------------------------|
A|-----------------------------------------------------------------------------|
E|-----------------------------------------------------------------------------|

quick downstrokes
"Because the west coast. knows how to kill it.."
e|-----------------------------------------------------------------------------|
B|-----------------------------------------------------------------------------|
G|--7--7--7-7-7------10-10---8-8-8---------------------------------------------|
D|--8--8--8-8-8------10-10---8-8-8---------------------------------------------|
A|--8--8--8-8-8------ 8--8---6-6-6---------------------------------------------|
E|--6--6--6-6-6----------------------------------------------------------------|

"Once upon a time in the neighborhood.."
e|-----------------------------------------------------------------------------------|
B|-----------------------------------------------------------------------------------|
G|-------------10--------------------------------------------------------------------|
D|----8----8---10--------------------------------------------------------------------|
A|----8----8----8~/------------------------------------------------------------------|
E|----6~/--6~/-----------------------------------------------------------------------|

e|-------------------------------------------------------------------------------|
B|-------------------------------------------------------------------------------|
G|-------------------------------------------------------------------------------|
D|-----7-8-10-----5-6-8----------------------------------------------------------|
A|---8----------6----------------------------------------------------------------|
E|-------------------------------------------------------------------------------|

Back to Intro riff
Tap to rate this tab
 
# A B C D E F G H I J K L M N O P Q R S T U V W X Y Z