Song name
# A B C D E F G H I J K L M N O P Q R S T U V W X Y Z

Dirty Heads - Anchors Up tab

Intro (Anchors Up) – The Dirty Heads

Tabbed by: Jahbrudda
Tuning: DADGAd (D Modal)

So this is the opening instrumental track off of The Dirty Heads newest album “Phantoms 
of Summer: The acoustic sessions” it’s a beautiful song and fun to play. The tuning is D 
modal so it gives it that open “free” feel to it which is awesome, so have fun! Enjoy


d|----------------------------------------|
A|----------------3/5-3--5-5/7-5p3---3----|
G|-0-0--0-5-0-5---------------------------|
D|----------------------------------------|   X3
A|-3-3--3-3-3-3---0------0---------0------|
D|----------------------------------------|

d|-------------------|
A|--2-3-5/3-0-2-3----|
G|-------------------|
D|-------------------|  Play at the end of the third time through the first part
A|--0---0-----0------|
D|-------------------|

d|-------------------------------------------|
A|------------5-5/7-5-3-2-3/5-3-2-0-2-2h3p---|
G|-0-5-5/7-5---------------------------------|
D|-------------------------------------------|
A|-3----------0---------0-------0------------|
D|-------------------------------------------|

d|-------------------------------------|
A|----------------3/5-3--5-5/7-5p3---3-|
G|-0-0-0-5p0-0-0-----------------------| I play this one differently, alternating base 
note to
D|-------------------------------------| melody, because he does a slightly off picking pattern
A|-3--3-3-----3---0------0---------0---| in the recording.
D|-------------------------------------|

d|--------------------------------------------|
A|--------------5-5/7-5-3-2-3/5-3-2-0-2-2h3p--|
G|--0-5-5/7--5--------------------------------| Like before this one has a different picking
D|--------------------------------------------| pattern (alternating base to melody note)
A|-3-3-0----0--0-0---0-0-0-0---0-0-0-0-0------|
D|--------------------------------------------|


P – pull off
H – hammer on
/ - slide
Tap to rate this tab
# A B C D E F G H I J K L M N O P Q R S T U V W X Y Z