Song name
# A B C D E F G H I J K L M N O P Q R S T U V W X Y Z

Dirty Heads - Sloths Revenge tab

Tabbed by: Jay Dog
Song: Sloth's Revenge
Album: Home| Phantoms of Summer: The Acoustic Sessions
Artist: The Dirty Heads

(You can figure out the strumming pattern and rhythm, it's fairly simple.)

                            Intro Riff:

e|----------------------------------------------------------------|
B|----------------------------------------------------------------|
G|----------------------------------------------------------------|
D|----------------------------------------------------------------|
A|-7-6-7---7-6-7----9--7--5----4-2-4----4-2-4---------------------|
E|----------------------------------------------------------------|

                             Verse:

e|----------------------------------------------------------------|
B|----------------------------------------------------------------|
G|-----------------------------6--6---4-----6---6-6--4--6---------|
D|-----------------------------6--6---4-----6---6-6--4--6---------|
A|-7-6-7---7-6-7----9--7--5----4--4---2-----4---4-4--2--4---------|
E|----------------------------------------------------------------|

e|---------------------------------------------------------------|
B|---------------------------------------------------------------|
G|-9--8--9----9-(9)--8--9---11--9--8---6---4--6---6--(6)--4--6---|
D|-9--8--9----9-(9)--8--9---11--9--8---6---4--6---6--(6)--4--6---|
A|-7--6--7----7-(7)--6--7---9---7--6---4---2--4---4--(4)--2--4---|
E|---------------------------------------------------------------|

                     
e|---5-----7-----------------------------------------------------|
B|---5-----7-----------------------------------------------------|
G|---6-----8-----------------------------------------------------|
D|---7-----9-----------------------------------------------------|
A|---7-----9-----------------------------------------------------|
E|---5-----7-----------------------------------------------------|

Uses the same chord progression for the choruses and other two verses.
Tap to rate this tab
# A B C D E F G H I J K L M N O P Q R S T U V W X Y Z