Song name
# A B C D E F G H I J K L M N O P Q R S T U V W X Y Z

Dirty Penny - Midnight Ride tab

Hey, this is my tab for this awesome song by a very underated band. Without solo. Good Luck
Rock on!

Johnny Prince (rythm)
               Intro                 Delay
               W                 8x  E     E  Q    E  E  Q
D||-------||---------------------||---------------------------|
A||-------||---------------------||---------------------------|
F||-------||*--2----------------*||--2-----2-------2--2-------|
C||-------||*--2----------------*||--2-----2-------2--2-------|
G||-------||---0-----------------||--0-----0-------0--0-------|
D||-------||---------------------||---------------------------|


  E  E  Q    E  E  Q       E.  E  Q    E  E  E.     E  E  Q    E  E  Q
------------------------|------------------------|------------------------|
------------------------|------------------------|------------------------|
--2--2-------2--2-------|--2---2-------2--2------|--2--2-------2--2-------|
--2--2-------2--2-------|--2---2-------2--2------|--2--2-------2--2-------|
--0--0-------0--0-------|--0---0-------0--0------|--0--0-------0--0-------|
------------------------|------------------------|------------------------|


  E  E  H.              S S E  S S E  S S E  S S E     E   E  E   E
---------------------|------------------------------|----------------|
---------------------|------------------------------|----------------|
--2-----2------------|--5-5-----------5-5-----------|----------------|
--2-----2------------|--5-5----5-5----5-5----5-5----|----------------|
--0-----0------------|--3-3----5-5----3-3----5-5----|--3p--0--3p--0--|
---------------------|---------3-3-----------3-3----|----------------|


  Main Riff
            PM PM        PM            PM PM        PM
  Q         E  E  E   E  E  E     Q    E  E  E   E  E  E
-------------------------------|--------------------------|
-------------------------------|--------------------------|
--2-------------------------2--|--L-----------------------|
--2-------------------------2--|--L--------------------5--|
--0---------0--0--3p--0--0--0--|--L----0--0--3p--0--0--5--|
-------------------------------|-----------------------3--|


          PM        PM            PM PM
  Q    E  E  E   E  E  E     Q    E  E  E   E  E  E
--------------------------|--------------------------|
--------------------------|--------------------------|
-----------------------7--|--L-----------------5--2--|
--L--------------------7--|--L-----------------5--2--|
--L--------------------5--|--L----5--5--5p--0--3--0--|
--L----3--3--3p--0--0-----|--------------------------|


       PM PM        PM            PM PM        PM
  Q    E  E  E   E  E  E     Q    E  E  E   E  E  E
--------------------------|--------------------------|
--------------------------|--------------------------|
--L--------------------2--|--L-----------------------|
--L--------------------2--|--L--------------------5--|
--L----0--0--3p--0--0--0--|--L----0--0--3p--0--0--5--|
--------------------------|-----------------------3--|


          PM        PM            PM PM
  Q    E  E  E   E  E  E     Q    E  E  E   E  E  E     W
--------------------------|--------------------------|-------------------|
--------------------------|--------------------------|-------------------|
-----------------------7--|--L-----------------5--2--|--L----------------|
--L--------------------7--|--L-----------------5--2--|--L----------------|
--L--------------------5--|--L----5--5--5p--0--3--0--|--L----------------|
--L----3--3--3p--0--0-----|--------------------------|-------------------|

                      Verses
-------------------||-----------------------|-----------------------|
-------------------||-----------------------|-----------------------|
-------------------||*--2-------------------|--2-----2--2-----------|
-------------------||*--2-------------------|--2-----2--2-----------|
-------------------||---0-------------------|--0-----0--0-----------|
-------------------||-----------------------|-----------------------|


  E  E  S E  E  S E  S  S S  S    W
-------------------------------|--------------------||
-------------------------------|--------------------||
--5--5-------------------------|--2----------------*||
--5--5--3-3--5--5--------------|--2----------------*||
--3--3--3-3--5--5----3p-0-3p-0-|--0-----------------||
--------1-1--3--3--------------|--------------------||


  E  E  S E  E  S E  S  S S  S    W                   E  E  H.
-------------------------------|-------------------|---------------------||
-------------------------------|-------------------|---------------------||
--5--5-------------------------|--2----------------|--2------------------||
--5--5--3-3--5--5--------------|--2----------------|--2------------------||
--3--3--3-3--5--5----3p-0-3p-0-|--0----------------|--0------------------||
--------1-1--3--3--------------|-------------------|---------------------||

Chorus is 4 times the main riff

Then the verse again

Then the chorus again

This is the riff before the solo

---------------|------------------------------|-------------------|
---------------|------------------------------|-------------------|
---------------|------------------------------|-------------------|
---------------|--10s--7--7--7--10s--7--7--7--|-------------------|
---------------|--10s--7--7--7--10s--7--7--7--|-------------------|
---------------|---8s--5--5--5---8s--5--5--5--|-------------------|


  E   E  E  E  E   E  E  E     W                   E   E  E  E  E   E  E  E
----------------------------|-------------------|----------------------------|
----------------------------|-------------------|----------------------------|
----------------------------|-------------------|--5s--7--7--7--5s--7--7--7--|
--7s--5--5--5--7s--5--5--5--|-------------------|--5s--7--7--7--5s--7--7--7--|
--7s--5--5--5--7s--5--5--5--|-------------------|--3s--5--5--5--3s--5--5--5--|
--5s--3--3--3--5s--3--3--3--|-------------------|----------------------------|


  W                   E   E  E  E  E  E  E   E     W
-------------------|----------------------------|-------------------||
-------------------|----------------------------|-------------------||
-------------------|--7s--9-----9-----9-----12--|--L----------------||
-------------------|--7s--9-----9-----9-----12--|--L----------------||
-------------------|--5s--7-----7-----7-----10--|--L----------------||
-------------------|----------------------------|-------------------||

Here comes the solo that I haven't figured out yet but its in the key of A minor so you 
improvise on it;)

This is what comes after the solo
                                           Repeat these two bars 4 times
  W                   Q    Q    H           Q    E  E  E   E  Q
-------------------|---------------------|-------------------------|
-------------------|---------------------|-------------------------|
--2----------------|--2----2----L--------|--2----------------------|
--2----------------|--2----2----L--------|--2----------------------|
--0----------------|--0----0----L--------|--0----0--0--3p--0--0----|
-------------------|---------------------|-------------------------|


       PM PM        PM
  Q    E  E  E   E  Q
-------------------------||
-------------------------||
--2----------------------||
--2----------------------||
--0----0--0--3p--0--0----||
-------------------------||

Then play the chorus again

After the chorus play this bar 8 times

|-------------------------|
|-------------------------|
|--2----------------------|
|--2----------------------|
|--0----0--0--3p--0--0----|
|-------------------------|

and for the end play this

   PM PM PM PM PM PM PM PM
|--------------------------||
|--------------------------||
|-----------------5--5--2--||
|--3--3--3--3--3--5--5--2--||
|--3--3--3--3--3--3--3--0--||
|--1--1--1--1--1-----------||

And these are the couple lead fills that Johnny plays:

During the intro over the main riff he plays this

  E  E  E  Q.     E  E     E  E  E  E  H           E  E  E  Q.     E  E
------------------------|-----------------------|------------------------|
------------------------|-----------------------|------------------------|
-----5------------------|-----------------------|-----5------------------|
-----------7------5-----|--5-----5--7--L--------|-----------7------5-----|
------------------------|-----------------------|------------------------|
------------------------|-----------------------|------------------------|


  E  E  E  E  H           E  E  E  Q.     E  E     E  E  E  E  E  E  Q
-----------------------|------------------------|-------------------------|
-----------------------|------------------------|-------------------------|
-----------------------|-----5------------------|--------------5-----5----|
--5-----5--7--L--------|-----------7------5-----|--5-----5--7-----7-------|
-----------------------|------------------------|-------------------------|
-----------------------|------------------------|-------------------------|


  E  E  Q     E  Q    E     E  E  E    E  E  E  Q
-------------------------|---------------------------|
--------------8----------|---------------------------|
--7--5--7b-------7-------|--5--7--7br--5--7----------|
-------------------------|-------------------7--L----|
-------------------------|---------------------------|
-------------------------|---------------------------|

Before every verse and after the solo he plays this

  E  E  E  E  E  E  S  S  S S
------------------------------|
------------------------------|
------------------------------|
--7--5-----5--5--5--5h-7p-5---|
--------7-------------------7-|
------------------------------|

And finally during the verse he plays a little fill which goes like this:

  S S S S E   E  E  E  E  S S    E  E  E  E
------------------------------|--------------|----|----||
------------------------------|--------------|----|----||
--x-x-x-x-----------------x-x-|--5-----------|----|----||
--x-x-x-x-5h--7--7--7--7--x-x-|-----7--5--7--|----|----||
--x-x-x-x---------------------|--------------|----|----||
--x-x-x-x---------------------|--------------|----|----||

Ok this is it, u have to find the timing out by urself

GOod luck!
Tap to rate this tab
 
# A B C D E F G H I J K L M N O P Q R S T U V W X Y Z