Song name
# A B C D E F G H I J K L M N O P Q R S T U V W X Y Z

Dirty Penny - Vendetta tab

-------------------------------------------------------------------------------
			  Vendetta - Dirty Penny
-------------------------------------------------------------------------------
Tabbed by: Angusyoung2640
Email: brewerfan4life@aol.com

Tuning: Standard

Intro Part One

e|----------------------------|
B|----------------------------|
G|-7-----7-5-7-----7----10-7--| x1
D|-5-----5-5-5-----5-----8-5--|
A|----------------------------|
E|---3-3-------3-3---3-3------|

Intro Part 2

e|--------------------------|
B|--------------------------|
G|-----7-5-7-----7----10-7--| x6
D|-----5-5-5-----5-----8-5--|
A|--------------------------|
E|-3-3-------3-3---3-3------|

Intro Ending

e|------------------|
B|------------------|
G|-----7-5-7-----7--|
D|-----5-5-5-----5--|
A|------------------|
E|-3-3-------3-3----|

Tap to rate this tab
 
# A B C D E F G H I J K L M N O P Q R S T U V W X Y Z