Dirty Penny - Rock tab

Hey :) i just figured this out. no solo (yet, but soon). I am going to open for 
this band soon so i've been learning their tunes. please comment on this tab. 


D Tuning = whole step down = D G C F A d
song by Dirty Penny
Tabbed by Izzy Sleazze of Hollywood Harlot (Me)


RIFF 1  d------------------------------------------------------I
 3x     A------------------------------------------------------I
        F-------5-2------9p7--7-5----------7-5------5h7--10-9--I
        C-------2-2------7-7--7-5------5-5-5-5--5-5-5-5--8--7--I
        G---0-0------0-0---------------------------------------I
        D------------------------------------------------------I

               PALM MUTE SINGLE 0's AND SINGLE 5's

 RIFF 1 d------------------------------------------------------------------I
 4TH    A------------------------------------------------------------------I
 time   F-------5-2------9p7--7-5-------7-5---------------------2~~~~~X/// I
        C-------2-2------7-7--7-5---5-5-5-5-5-5-----------------2~~~~~X/// I
        G---0-0------0-0------------------------0h2h3p0-0h2h3p0-0~~~~~X/// I
        D------------------------------------------------------------------I


 RIFF 2 d----------------------------------I
        A----------------------------------I
   2x   F--2~~~~~4~~~~5~~~~---7~~5~~2~~~~~~I
        C--2~~~~~4~~~~5~~~~5~~7~~5~~2~~~~~~I
        G--0~~~~~2~~~~3~~~~5~~5~~3~~0~~~~~~I
        D------------------3~~-------------I


 RIFF 3 d--------------------------I
        A--------------------------I
        F------------10-10---------I  PALM MUTED
  4x    C------10-10-------10-10---I
        G--8-8---------------------I
        D--------------------------I


 RIFF 4 d----------------------------I
        A----------------------------I
        F--------------12-12---------I
   3x   C--------12-12-------12-12---I  PALM MUTED
        G--10-10---------------------I
        D----------------------------I


 RIFF 5 d-------------------------------I
        A-------------------------------I
        F--5-5-5------------------------I
  3x    C--5-5-5-5-5-5--7~~--7~~--7~~---I
        G--3-3-3-5-5-5--7~~--7~~--7~~---I
        D--------3-3-3--5~~--5~~--5~~---I


        
 RIFF 5 d-----------------------------------------I
        A-----------------------------------------I
        F--5-5-5------------------5-5-5-5---------I
4th     C--5-5-5-5-5-5--7~~--7~~--5-5-5-5-5-5--7~~I
time    G--3-3-3-5-5-5--7~~--7~~--3-3-3-3-5-5--7~~I
only    D--------3-3-3--5~~--5~~----------3-3--5~~I
 
            next play these

            Riff 1  2x
            Riff 2  2x
            Riff 3  4x
            Riff 4  3x
            Riff 5  4x
           
          idk the solo very sorry    im working on it

            Riff 1  3x

             Sorry if the ending is a little off   other than that this
             should be a really good tab seeing as no one has posted it :)
             thanks  for your time please leave comments so i know if i
             want to write more :) have a good day
               
Tap to rate this tab
 
# A B C D E F G H I J K L M N O P Q R S T U V W X Y Z