Song name
# A B C D E F G H I J K L M N O P Q R S T U V W X Y Z

Dirty Pretty Things - Faultlines tab

One of the best songs on the album... A shame the faultlines split...

Chord chart:
E - 022100
G#m7#5 - 466000
A (5th fret) - 577655
B (7th fret) - 799877
D - xx0232
A (open) - x02220
B (2nd fret) - x24442
G# - 466544
F#m - 244322
C#m - x46654

Chords:

Intro:   E   G#m7#5   A (5th fret)   B (7th fret)

Verse:   E   G#m7#5   A (5th fret)   B (7th fret)

"all this waiting is just hesitating...":   D   A (open)   E   B (2nd fret)

Chorus:   G#m7#5   A   G#m7#5   A (5th fret)
then quickly, at "you know you want to run away":   A (5th fret)   G#   F#m   E

Bridge:   C#m   A   C#m   A   G#

Lead:

"all this waiting is just hesitating...":

-------5--------0-------0------------2-----------------|
---7-----7--------2---2--------7-----4-----------------|
-7---7-----7--2-----2--------7---7---4-----------------|
---------------------------7---------4-----------------|
---------------------------5---------2-----------------|
-------------------------------------------------------|

"and the faultlines.."

--------------------4----------------------------------------|
------------5-----5---5--------------4---5-------------------|
---4-----6------6-------6----4-5---5---6---------------------|
-6-------------------------6-----6---------------------------|
-------------------------------------------------------------|
-------------------------------------------------------------|

"you know you want to run away..."

---4-4-4-4-4--4-7--------------------------------------------------|
-----0-0-0-0-------------------------------------------------------|
-4---4-3-4-4--5---8-8----9-----------------------------------------|
----------------------9--------------------------------------------|
----------------------11-------------------------------------------|
-------------------------------------------------------------------|

bridge: (apologies for mistakes, it's difficult to hear)

-----------------------------------------------------------------------|
---4-5-4-5--4-5----2-1-2-----2-1---5-4-5----5-4-5--2-1-2-0--(2h4p0)-1--|
-6-----------------------2h4----------------6-6-6----------------------|
-----------------------------------------------------------------------|
-----------------------------------------------------------------------|
-----------------------------------------------------------------------|

"you know you want to run away" second time:

----------------------------------------------------------------------|
------------12-12-14--------------------------------------------------|
---------------------11b13--11----11b12-12-11-------------------------|
-------------------------------14-------------11-13 ------------------|   x2
----------------------------------------------------------------------|
-5-5-4-2-0------------------------------------------------------------|

then:

-----------------------------------------------------------------|
-----------------------------------------------------------------|
-9-8-9--8--------------------------------------------------------|
-----11-9--------------------------------------------------------|
-----------------------------------------------------------------|
-----------------------------------------------------------------|

end on E

Lyrics:
The fights, they never end
Like the nights, they've taken me over
And yeah I get the fear
But I cannot be bothered

All this waiting is just hesitating for nothing
And the fault lines
And all the conjecture from both sides
Why oh why can't we change things
This is destroying me inside

You know you wanna run away

We shared out dreams
And nearly everything in between
I'll never forget those
Long lost days in a haze
Where we lost ourselves with no apology

All this waiting is just hesitating for nothing
And the fault lines
And all the conjecture from both sides
Why oh why can't we change things
This is destroying me inside

You know you wanna jump in
To the pit
Back to life distorted (So sordid)
We fell down dead
But nobody saw it
I got twenty faces and I'm talking in tongues
I fell like the devil
What does the devil do?

You know you wanna run away

Fault lines all on the wrong side of daylight
Slight on the deck and its fine
We can hold on for a lifetime

You know you wanna run away
Tap to rate this tab
# A B C D E F G H I J K L M N O P Q R S T U V W X Y Z