Song name
# A B C D E F G H I J K L M N O P Q R S T U V W X Y Z

Dirty Pretty Things - Tired Of England tab

    Dirty Pretty Things
     Tired Of England
Barat/Rossomando/Hammond/Powell

Guitar 1: Carl Barat (Carl) Rythym Electric
Guitar 2: Anthony Rossomando (Stan) Lead Electric
Guitar 3: Carl Barat Over-Dub (COD) Lead Acoustic
Guitar 4: Anthony Rossomando Over-Dub (AOD) Rythym Acoustic
Guitar 5: Over-Dub (OD) Electric
Horn: Carl Barat (CH)
Horn:Anthony Rossomando (AH)


Intro:

CH:
*
e---------------------------------------------------|
B---------------------------------------------------|
G----11--15---------9--13----------11--15-----------|
D---------------------------------------------------|
A---------------------------------------------------|
E---------------------------------------------------|

e------------------------------------------------|
B------------------------------------------------|
G-----9--13---------11--15---------9--11---------|
D------------------------------------------------|
A------------------------------------------------|
E------------------------------------------------|

AH:
*
e--------------------------------------------------|
B--------------------------------------------------|
G-----11--15--11-----9--13--9------11--15--11------|
D-11--------------11-----------11--------------11--|
A--------------------------------------------------|
E--------------------------------------------------|

e------------------------------------------------|
B------------------------------------------------|
G-----9--13--9------11--15--11--------15~~~~~~~~-|
D-11------------11--------------11---------------|
A------------------------------------------------|
E------------------------------------------------|

Verse 1:

Carl:
*

 How can...     England?     They'll       we know.
e-2-2-2--2-2-2--6-6-6--6-6-6--2-2-2--2-2-2--6-6-6--6-6-6-|
B-2-2-2--2-2-2--6-6-6--6-6-6--2-2-2--2-2-2--6-6-6--6-6-6-|
G-3-3-3--3-3-3--6-6-6--6-6-6--3-3-3--3-3-3--6-6-6--6-6-6-|
D-4-4-4--4-4-4--8-8-8--8-8-8--4-4-4--4-4-4--8-8-8--8-8-8-|
A-4-4-4--4-4-4--8-8-8--8-8-8--4-4-4--4-4-4--8-8-8--8-8-8-|
E-2-2-2--2-2-2--6-6-6--6-6-6--2-2-2--2-2-2--6-6-6--6-6-6-|
  know where...  go no.      never notice... down low.
e-2-2-2--2-2-2--5-5-5--5-5-5--2-2-2--2-2-2--5-5-5--7-7-7--|
B-4-4-4--4-4-4--7-7-7--7-7-7--4-4-4--4-4-4--7-7-7--9-9-9--|
G-4-4-4--4-4-4--7-7-7--7-7-7--4-4-4--4-4-4--7-7-7--9-9-9--|
D-4-4-4--4-4-4--7-7-7--7-7-7--4-4-4--4-4-4--7-7-7--9-9-9--|
A-2-2-2--2-2-2--5-5-5--5-5-5--2-2-2--2-2-2--5-5-5--7-7-7--|
E---------------------------------------------------------|
C I'll...    tired... England.  United...    cities.
e-2-2-2--2-2-2--6-6-6--6-6-6--2-2-2--2-2-2--6-6-6--6-6-6-|
B-2-2-2--2-2-2--6-6-6--6-6-6--2-2-2--2-2-2--6-6-6--6-6-6-|
G-3-3-3--3-3-3--6-6-6--6-6-6--3-3-3--3-3-3--6-6-6--6-6-6-|
D-4-4-4--4-4-4--8-8-8--8-8-8--4-4-4--4-4-4--8-8-8--8-8-8-|
A-4-4-4--4-4-4--8-8-8--8-8-8--4-4-4--4-4-4--8-8-8--8-8-8-|
E-2-2-2--2-2-2--6-6-6--6-6-6--2-2-2--2-2-2--6-6-6--6-6-6-|
  to channel...  in a...      to carry...    place below.
e-2-2-2--2-2-2--5-5-5--5-5-5--2-2-2--2-2-2--5-5-5--7-7-7--|
B-4-4-4--4-4-4--7-7-7--7-7-7--4-4-4--4-4-4--7-7-7--9-9-9--|
G-4-4-4--4-4-4--7-7-7--7-7-7--4-4-4--4-4-4--7-7-7--9-9-9--|
D-4-4-4--4-4-4--7-7-7--7-7-7--4-4-4--4-4-4--7-7-7--9-9-9--|
A-2-2-2--2-2-2--5-5-5--5-5-5--2-2-2--2-2-2--5-5-5--7-7-7--|
E---------------------------------------------------------|

Stan:
*


e-2-2-2--2-2-2--6-6-6--6-6-6--2-2-2--2-2-2--6-6-6--6-6-6-|
B-2-2-2--2-2-2--6-6-6--6-6-6--2-2-2--2-2-2--6-6-6--6-6-6-|
G-3-3-3--3-3-3--6-6-6--6-6-6--3-3-3--3-3-3--6-6-6--6-6-6-|
D-4-4-4--4-4-4--8-8-8--8-8-8--4-4-4--4-4-4--8-8-8--8-8-8-|
A-4-4-4--4-4-4--8-8-8--8-8-8--4-4-4--4-4-4--8-8-8--8-8-8-|
E-2-2-2--2-2-2--6-6-6--6-6-6--2-2-2--2-2-2--6-6-6--6-6-6-|

e-2-2-2--2-2-2--5-5-5--5-5-5--2-2-2--2-2-2--5-5-5--7-7-7--|
B-4-4-4--4-4-4--7-7-7--7-7-7--4-4-4--4-4-4--7-7-7--9-9-9--|
G-4-4-4--4-4-4--7-7-7--7-7-7--4-4-4--4-4-4--7-7-7--9-9-9--|
D-4-4-4--4-4-4--7-7-7--7-7-7--4-4-4--4-4-4--7-7-7--9-9-9--|
A-2-2-2--2-2-2--5-5-5--5-5-5--2-2-2--2-2-2--5-5-5--7-7-7--|
E---------------------------------------------------------|
C


e-2-2-2--2-2-2--6-6-6--6-6-6--2-2-2--2-2-2--6-6-6--6-6-6-|
B-2-2-2--2-2-2--6-6-6--6-6-6--2-2-2--2-2-2--6-6-6--6-6-6-|
G-3-3-3--3-3-3--6-6-6--6-6-6--3-3-3--3-3-3--6-6-6--6-6-6-|
D-4-4-4--4-4-4--8-8-8--8-8-8--4-4-4--4-4-4--8-8-8--8-8-8-|
A-4-4-4--4-4-4--8-8-8--8-8-8--4-4-4--4-4-4--8-8-8--8-8-8-|
E-2-2-2--2-2-2--6-6-6--6-6-6--2-2-2--2-2-2--6-6-6--6-6-6-|

e-2-2-2--2-2-2--5-5-5--5-5-5--2-2-2--2-2-2--5-5-5--7-7-7--|
B-4-4-4--4-4-4--7-7-7--7-7-7--4-4-4--4-4-4--7-7-7--9-9-9--|
G-4-4-4--4-4-4--7-7-7--7-7-7--4-4-4--4-4-4--7-7-7--9-9-9--|
D-4-4-4--4-4-4--7-7-7--7-7-7--4-4-4--4-4-4--7-7-7--9-9-9--|
A-2-2-2--2-2-2--5-5-5--5-5-5--2-2-2--2-2-2--5-5-5--7-7-7--|
E---------------------------------------------------------|

COD:
C
e------------------------------------------------------|
B-10--10--10----8--8--8---7--10--10--10----8--8--8---7-|
G-10--10--10----8--8--8---7--10--10--10----8--8--8---7-|
D------------------------------------------------------|
A------------------------------------------------------|
E------------------------------------------------------|

e-2-2-2--2-2-2--5-5-5--5-5-5--2-2-2--2-2-2--5-5-5--7-7-7--|
B-4-4-4--4-4-4--7-7-7--7-7-7--4-4-4--4-4-4--7-7-7--9-9-9--|
G-4-4-4--4-4-4--7-7-7--7-7-7--4-4-4--4-4-4--7-7-7--9-9-9--|
D-4-4-4--4-4-4--7-7-7--7-7-7--4-4-4--4-4-4--7-7-7--9-9-9--|
A-2-2-2--2-2-2--5-5-5--5-5-5--2-2-2--2-2-2--5-5-5--7-7-7--|
E---------------------------------------------------------|

AOD:
*


e-2-2-2--2-2-2--6-6-6--6-6-6--2-2-2--2-2-2--6-6-6--6-6-6-|
B-2-2-2--2-2-2--6-6-6--6-6-6--2-2-2--2-2-2--6-6-6--6-6-6-|
G-3-3-3--3-3-3--6-6-6--6-6-6--3-3-3--3-3-3--6-6-6--6-6-6-|
D-4-4-4--4-4-4--8-8-8--8-8-8--4-4-4--4-4-4--8-8-8--8-8-8-|
A-4-4-4--4-4-4--8-8-8--8-8-8--4-4-4--4-4-4--8-8-8--8-8-8-|
E-2-2-2--2-2-2--6-6-6--6-6-6--2-2-2--2-2-2--6-6-6--6-6-6-|

e-2-2-2--2-2-2--5-5-5--5-5-5--2-2-2--2-2-2--5-5-5--7-7-7--|
B-4-4-4--4-4-4--7-7-7--7-7-7--4-4-4--4-4-4--7-7-7--9-9-9--|
G-4-4-4--4-4-4--7-7-7--7-7-7--4-4-4--4-4-4--7-7-7--9-9-9--|
D-4-4-4--4-4-4--7-7-7--7-7-7--4-4-4--4-4-4--7-7-7--9-9-9--|
A-2-2-2--2-2-2--5-5-5--5-5-5--2-2-2--2-2-2--5-5-5--7-7-7--|
E---------------------------------------------------------|
C


e-2-2-2--2-2-2--6-6-6--6-6-6--2-2-2--2-2-2--6-6-6--6-6-6-|
B-2-2-2--2-2-2--6-6-6--6-6-6--2-2-2--2-2-2--6-6-6--6-6-6-|
G-3-3-3--3-3-3--6-6-6--6-6-6--3-3-3--3-3-3--6-6-6--6-6-6-|
D-4-4-4--4-4-4--8-8-8--8-8-8--4-4-4--4-4-4--8-8-8--8-8-8-|
A-4-4-4--4-4-4--8-8-8--8-8-8--4-4-4--4-4-4--8-8-8--8-8-8-|
E-2-2-2--2-2-2--6-6-6--6-6-6--2-2-2--2-2-2--6-6-6--6-6-6-|

e-2-2-2--2-2-2--5-5-5--5-5-5--2-2-2--2-2-2--5-5-5--7-7-7--|
B-4-4-4--4-4-4--7-7-7--7-7-7--4-4-4--4-4-4--7-7-7--9-9-9--|
G-4-4-4--4-4-4--7-7-7--7-7-7--4-4-4--4-4-4--7-7-7--9-9-9--|
D-4-4-4--4-4-4--7-7-7--7-7-7--4-4-4--4-4-4--7-7-7--9-9-9--|
A-2-2-2--2-2-2--5-5-5--5-5-5--2-2-2--2-2-2--5-5-5--7-7-7--|
E---------------------------------------------------------|

Pre-Chorus:

Carl:
*blue, grey, green, brown.
e-5---5-5---5-5---5-5---5-5-5-5-5-5-5-5-|
B-5---5-5---5-5---5-5---5-5-5-5-5-5-5-5-|
G-6---6-6---6-6---6-6---6-6-6-6-6-6-6-6-|
D-7---7-7---7-7---7-7---7-7-7-7-7-7-7-7-|
A-7---7-7---7-7---7-7---7-7-7-7-7-7-7-7-|
E-5---5-5---5-5---5-5---5-5-5-5-5-5-5-5-|

Stan:
*
e-5---5-5---5-5---5-5---5-5-5-5-5-5-5-5-|
B-5---5-5---5-5---5-5---5-5-5-5-5-5-5-5-|
G-6---6-6---6-6---6-6---6-6-6-6-6-6-6-6-|
D-7---7-7---7-7---7-7---7-7-7-7-7-7-7-7-|
A-7---7-7---7-7---7-7---7-7-7-7-7-7-7-7-|
E-5---5-5---5-5---5-5---5-5-5-5-5-5-5-5-|

COD:
*
e-5---5-5---5-5---5-5---5-5-5-5-5-5-5-5-|
B-5---5-5---5-5---5-5---5-5-5-5-5-5-5-5-|
G-6---6-6---6-6---6-6---6-6-6-6-6-6-6-6-|
D-7---7-7---7-7---7-7---7-7-7-7-7-7-7-7-|
A-7---7-7---7-7---7-7---7-7-7-7-7-7-7-7-|
E-5---5-5---5-5---5-5---5-5-5-5-5-5-5-5-|

AOD:
*
e-5---5-5---5-5---5-5---5-5-5-5-5-5-5-5-|
B-5---5-5---5-5---5-5---5-5-5-5-5-5-5-5-|
G-6---6-6---6-6---6-6---6-6-6-6-6-6-6-6-|
D-7---7-7---7-7---7-7---7-7-7-7-7-7-7-7-|
A-7---7-7---7-7---7-7---7-7-7-7-7-7-7-7-|
E-5---5-5---5-5---5-5---5-5-5-5-5-5-5-5-|

Chorus:

Carl:
*the lonely nights up town dont let them bring you down.
e-5--5--5--5--5--5---5-5----5--5--5--5--5--5---5-5-|
B-7--7--7--7--7--7---7-7----5--5--5--5--5--5---5-5-|
G-7--7--7--7--7--7---7-7----6--6--6--6--6--6---6-6-|
D-7--7--7--7--7--7---7-7----7--7--7--7--7--7---7-7-|
A-5--5--5--5--5--5---5-5----7--7--7--7--7--7---7-7-|
E---------------------------5--5--5--5--5--5---5-5-|
 the lonely nights up town dont let them bring us down.
e-5--5--5--5--5--5---5-5----5--5--5--5--5--5---5-5-|
B-7--7--7--7--7--7---7-7----5--5--5--5--5--5---5-5-|
G-7--7--7--7--7--7---7-7----6--6--6--6--6--6---6-6-|
D-7--7--7--7--7--7---7-7----7--7--7--7--7--7---7-7-|
A-5--5--5--5--5--5---5-5----7--7--7--7--7--7---7-7-|
E---------------------------5--5--5--5--5--5---5-5-|
  no.
e-4-4-4-4-4-4-4-4-|
B-6-6-6-6-6-6-6-6-|
G-6-6-6-6-6-6-6-6-|
D-6-6-6-6-6-6-6-6-|
A-4-4-4-4-4-4-4-4-|
E-----------------|

Stan:
*
e-------------------------------------------------------|
B-----10-------10--7-7-7-7---------------10--10--10-8-7-|
G-11-----11--9-----7-7-7-7--/-6-6-6-6-6-----------------|
D---------------------------/-7-7-7-7-7-----------------|
A-------------------------------------------------------|
E-------------------------------------------------------|

e-------------------------------------------------------|
B-----10-------10--7-7-7-7---------------10--10--10-8-7-|
G-11-----11--9-----7-7-7-7--/-6-6-6-6-6-----------------|
D---------------------------/-7-7-7-7-7-----------------|
A-------------------------------------------------------|
E-------------------------------------------------------|

COD:
*
e-5--5--5--5--5--5---5-5----5--5--5--5--5--5---5-5-|
B-7--7--7--7--7--7---7-7----5--5--5--5--5--5---5-5-|
G-7--7--7--7--7--7---7-7----6--6--6--6--6--6---6-6-|
D-7--7--7--7--7--7---7-7----7--7--7--7--7--7---7-7-|
A-5--5--5--5--5--5---5-5----7--7--7--7--7--7---7-7-|
E---------------------------5--5--5--5--5--5---5-5-|

e-5--5--5--5--5--5---5-5----5--5--5--5--5--5---5-5-|
B-7--7--7--7--7--7---7-7----5--5--5--5--5--5---5-5-|
G-7--7--7--7--7--7---7-7----6--6--6--6--6--6---6-6-|
D-7--7--7--7--7--7---7-7----7--7--7--7--7--7---7-7-|
A-5--5--5--5--5--5---5-5----7--7--7--7--7--7---7-7-|
E---------------------------5--5--5--5--5--5---5-5-|

e-4-4-4-4-4-4-4-4-|
B-6-6-6-6-6-6-6-6-|
G-6-6-6-6-6-6-6-6-|
D-6-6-6-6-6-6-6-6-|
A-4-4-4-4-4-4-4-4-|
E-----------------|

AOD:
*
e-5--5--5--5--5--5---5-5----5--5--5--5--5--5---5-5-|
B-7--7--7--7--7--7---7-7----5--5--5--5--5--5---5-5-|
G-7--7--7--7--7--7---7-7----6--6--6--6--6--6---6-6-|
D-7--7--7--7--7--7---7-7----7--7--7--7--7--7---7-7-|
A-5--5--5--5--5--5---5-5----7--7--7--7--7--7---7-7-|
E---------------------------5--5--5--5--5--5---5-5-|

e-5--5--5--5--5--5---5-5----5--5--5--5--5--5---5-5-|
B-7--7--7--7--7--7---7-7----5--5--5--5--5--5---5-5-|
G-7--7--7--7--7--7---7-7----6--6--6--6--6--6---6-6-|
D-7--7--7--7--7--7---7-7----7--7--7--7--7--7---7-7-|
A-5--5--5--5--5--5---5-5----7--7--7--7--7--7---7-7-|
E---------------------------5--5--5--5--5--5---5-5-|

e-4-4-4-4-4-4-4-4-|
B-6-6-6-6-6-6-6-6-|
G-6-6-6-6-6-6-6-6-|
D-6-6-6-6-6-6-6-6-|
A-4-4-4-4-4-4-4-4-|
E-----------------|

Verse 2:

Carl:
* How can...     England?      Scent in...    day.
e-2-2-2--2-2-2--6-6-6--6-6-6--2-2-2--2-2-2--6-6-6--6-6-6-|
B-2-2-2--2-2-2--6-6-6--6-6-6--2-2-2--2-2-2--6-6-6--6-6-6-|
G-3-3-3--3-3-3--6-6-6--6-6-6--3-3-3--3-3-3--6-6-6--6-6-6-|
D-4-4-4--4-4-4--8-8-8--8-8-8--4-4-4--4-4-4--8-8-8--8-8-8-|
A-4-4-4--4-4-4--8-8-8--8-8-8--4-4-4--4-4-4--8-8-8--8-8-8-|
E-2-2-2--2-2-2--6-6-6--6-6-6--2-2-2--2-2-2--6-6-6--6-6-6-|
  Generation...   days...   moving along... old ways.
e-2-2-2--2-2-2--5-5-5--5-5-5--2-2-2--2-2-2--5-5-5--7-7-7--|
B-4-4-4--4-4-4--7-7-7--7-7-7--4-4-4--4-4-4--7-7-7--9-9-9--|
G-4-4-4--4-4-4--7-7-7--7-7-7--4-4-4--4-4-4--7-7-7--9-9-9--|
D-4-4-4--4-4-4--7-7-7--7-7-7--4-4-4--4-4-4--7-7-7--9-9-9--|
A-2-2-2--2-2-2--5-5-5--5-5-5--2-2-2--2-2-2--5-5-5--7-7-7--|
E---------------------------------------------------------|

  I'll never...   England.     well...       city.
e-2-2-2--2-2-2--6-6-6--6-6-6--2-2-2--2-2-2--6-6-6--6-6-6-|
B-2-2-2--2-2-2--6-6-6--6-6-6--2-2-2--2-2-2--6-6-6--6-6-6-|
G-3-3-3--3-3-3--6-6-6--6-6-6--3-3-3--3-3-3--6-6-6--6-6-6-|
D-4-4-4--4-4-4--8-8-8--8-8-8--4-4-4--4-4-4--8-8-8--8-8-8-|
A-4-4-4--4-4-4--8-8-8--8-8-8--4-4-4--4-4-4--8-8-8--8-8-8-|
E-2-2-2--2-2-2--6-6-6--6-6-6--2-2-2--2-2-2--6-6-6--6-6-6-|
   state of...     low...    generations...  in tow.
e-2-2-2--2-2-2--5-5-5--5-5-5--2-2-2--2-2-2--5-5-5--7-7-7--|
B-4-4-4--4-4-4--7-7-7--7-7-7--4-4-4--4-4-4--7-7-7--9-9-9--|
G-4-4-4--4-4-4--7-7-7--7-7-7--4-4-4--4-4-4--7-7-7--9-9-9--|
D-4-4-4--4-4-4--7-7-7--7-7-7--4-4-4--4-4-4--7-7-7--9-9-9--|
A-2-2-2--2-2-2--5-5-5--5-5-5--2-2-2--2-2-2--5-5-5--7-7-7--|
E---------------------------------------------------------|

Stan:
*


e-2-2-2--2-2-2--6-6-6--6-6-6--2-2-2--2-2-2--6-6-6--6-6-6-|
B-2-2-2--2-2-2--6-6-6--6-6-6--2-2-2--2-2-2--6-6-6--6-6-6-|
G-3-3-3--3-3-3--6-6-6--6-6-6--3-3-3--3-3-3--6-6-6--6-6-6-|
D-4-4-4--4-4-4--8-8-8--8-8-8--4-4-4--4-4-4--8-8-8--8-8-8-|
A-4-4-4--4-4-4--8-8-8--8-8-8--4-4-4--4-4-4--8-8-8--8-8-8-|
E-2-2-2--2-2-2--6-6-6--6-6-6--2-2-2--2-2-2--6-6-6--6-6-6-|

e-2-2-2--2-2-2--5-5-5--5-5-5--2-2-2--2-2-2--5-5-5--7-7-7--|
B-4-4-4--4-4-4--7-7-7--7-7-7--4-4-4--4-4-4--7-7-7--9-9-9--|
G-4-4-4--4-4-4--7-7-7--7-7-7--4-4-4--4-4-4--7-7-7--9-9-9--|
D-4-4-4--4-4-4--7-7-7--7-7-7--4-4-4--4-4-4--7-7-7--9-9-9--|
A-2-2-2--2-2-2--5-5-5--5-5-5--2-2-2--2-2-2--5-5-5--7-7-7--|
E---------------------------------------------------------|

e-2-2-2--2-2-2--6-6-6--6-6-6--2-2-2--2-2-2--6-6-6--6-6-6-|
B-2-2-2--2-2-2--6-6-6--6-6-6--2-2-2--2-2-2--6-6-6--6-6-6-|
G-3-3-3--3-3-3--6-6-6--6-6-6--3-3-3--3-3-3--6-6-6--6-6-6-|
D-4-4-4--4-4-4--8-8-8--8-8-8--4-4-4--4-4-4--8-8-8--8-8-8-|
A-4-4-4--4-4-4--8-8-8--8-8-8--4-4-4--4-4-4--8-8-8--8-8-8-|
E-2-2-2--2-2-2--6-6-6--6-6-6--2-2-2--2-2-2--6-6-6--6-6-6-|

e-2-2-2--2-2-2--5-5-5--5-5-5--2-2-2--2-2-2--5-5-5--7-7-7--|
B-4-4-4--4-4-4--7-7-7--7-7-7--4-4-4--4-4-4--7-7-7--9-9-9--|
G-4-4-4--4-4-4--7-7-7--7-7-7--4-4-4--4-4-4--7-7-7--9-9-9--|
D-4-4-4--4-4-4--7-7-7--7-7-7--4-4-4--4-4-4--7-7-7--9-9-9--|
A-2-2-2--2-2-2--5-5-5--5-5-5--2-2-2--2-2-2--5-5-5--7-7-7--|
E---------------------------------------------------------|

COD:
*
e------------------------------------------------------|
B-10--10--10----8--8--8---7--10--10--10----8--8--8---7-|
G-10--10--10----8--8--8---7--10--10--10----8--8--8---7-|
D------------------------------------------------------|
A------------------------------------------------------|
E------------------------------------------------------|

e-2-2-2--2-2-2--5-5-5--5-5-5--2-2-2--2-2-2--5-5-5--7-7-7--|
B-4-4-4--4-4-4--7-7-7--7-7-7--4-4-4--4-4-4--7-7-7--9-9-9--|
G-4-4-4--4-4-4--7-7-7--7-7-7--4-4-4--4-4-4--7-7-7--9-9-9--|
D-4-4-4--4-4-4--7-7-7--7-7-7--4-4-4--4-4-4--7-7-7--9-9-9--|
A-2-2-2--2-2-2--5-5-5--5-5-5--2-2-2--2-2-2--5-5-5--7-7-7--|
E---------------------------------------------------------|

e------------------------------------------------------|
B-10--10--10----8--8--8---7--10--10--10----8--8--8---7-|
G-10--10--10----8--8--8---7--10--10--10----8--8--8---7-|
D------------------------------------------------------|
A------------------------------------------------------|
E------------------------------------------------------|

e-2-2-2--2-2-2--5-5-5--5-5-5--2-2-2--2-2-2--5-5-5--7-7-7--|
B-4-4-4--4-4-4--7-7-7--7-7-7--4-4-4--4-4-4--7-7-7--9-9-9--|
G-4-4-4--4-4-4--7-7-7--7-7-7--4-4-4--4-4-4--7-7-7--9-9-9--|
D-4-4-4--4-4-4--7-7-7--7-7-7--4-4-4--4-4-4--7-7-7--9-9-9--|
A-2-2-2--2-2-2--5-5-5--5-5-5--2-2-2--2-2-2--5-5-5--7-7-7--|
E---------------------------------------------------------|

AOD:
*


e-2-2-2--2-2-2--6-6-6--6-6-6--2-2-2--2-2-2--6-6-6--6-6-6-|
B-2-2-2--2-2-2--6-6-6--6-6-6--2-2-2--2-2-2--6-6-6--6-6-6-|
G-3-3-3--3-3-3--6-6-6--6-6-6--3-3-3--3-3-3--6-6-6--6-6-6-|
D-4-4-4--4-4-4--8-8-8--8-8-8--4-4-4--4-4-4--8-8-8--8-8-8-|
A-4-4-4--4-4-4--8-8-8--8-8-8--4-4-4--4-4-4--8-8-8--8-8-8-|
E-2-2-2--2-2-2--6-6-6--6-6-6--2-2-2--2-2-2--6-6-6--6-6-6-|

e-2-2-2--2-2-2--5-5-5--5-5-5--2-2-2--2-2-2--5-5-5--7-7-7--|
B-4-4-4--4-4-4--7-7-7--7-7-7--4-4-4--4-4-4--7-7-7--9-9-9--|
G-4-4-4--4-4-4--7-7-7--7-7-7--4-4-4--4-4-4--7-7-7--9-9-9--|
D-4-4-4--4-4-4--7-7-7--7-7-7--4-4-4--4-4-4--7-7-7--9-9-9--|
A-2-2-2--2-2-2--5-5-5--5-5-5--2-2-2--2-2-2--5-5-5--7-7-7--|
E---------------------------------------------------------|

e-2-2-2--2-2-2--6-6-6--6-6-6--2-2-2--2-2-2--6-6-6--6-6-6-|
B-2-2-2--2-2-2--6-6-6--6-6-6--2-2-2--2-2-2--6-6-6--6-6-6-|
G-3-3-3--3-3-3--6-6-6--6-6-6--3-3-3--3-3-3--6-6-6--6-6-6-|
D-4-4-4--4-4-4--8-8-8--8-8-8--4-4-4--4-4-4--8-8-8--8-8-8-|
A-4-4-4--4-4-4--8-8-8--8-8-8--4-4-4--4-4-4--8-8-8--8-8-8-|
E-2-2-2--2-2-2--6-6-6--6-6-6--2-2-2--2-2-2--6-6-6--6-6-6-|

e-2-2-2--2-2-2--5-5-5--5-5-5--2-2-2--2-2-2--5-5-5--7-7-7--|
B-4-4-4--4-4-4--7-7-7--7-7-7--4-4-4--4-4-4--7-7-7--9-9-9--|
G-4-4-4--4-4-4--7-7-7--7-7-7--4-4-4--4-4-4--7-7-7--9-9-9--|
D-4-4-4--4-4-4--7-7-7--7-7-7--4-4-4--4-4-4--7-7-7--9-9-9--|
A-2-2-2--2-2-2--5-5-5--5-5-5--2-2-2--2-2-2--5-5-5--7-7-7--|
E---------------------------------------------------------|

Pre-Chorus:

Carl:
*blue, grey, green, brown.
e-5---5-5---5-5---5-5---5-5-5-5-5-5-5-5-|
B-5---5-5---5-5---5-5---5-5-5-5-5-5-5-5-|
G-6---6-6---6-6---6-6---6-6-6-6-6-6-6-6-|
D-7---7-7---7-7---7-7---7-7-7-7-7-7-7-7-|
A-7---7-7---7-7---7-7---7-7-7-7-7-7-7-7-|
E-5---5-5---5-5---5-5---5-5-5-5-5-5-5-5-|

Stan:
*
e-5---5-5---5-5---5-5---5-5-5-5-5-5-5-5-|
B-5---5-5---5-5---5-5---5-5-5-5-5-5-5-5-|
G-6---6-6---6-6---6-6---6-6-6-6-6-6-6-6-|
D-7---7-7---7-7---7-7---7-7-7-7-7-7-7-7-|
A-7---7-7---7-7---7-7---7-7-7-7-7-7-7-7-|
E-5---5-5---5-5---5-5---5-5-5-5-5-5-5-5-|

COD:
*
e-5---5-5---5-5---5-5---5-5-5-5-5-5-5-5-|
B-5---5-5---5-5---5-5---5-5-5-5-5-5-5-5-|
G-6---6-6---6-6---6-6---6-6-6-6-6-6-6-6-|
D-7---7-7---7-7---7-7---7-7-7-7-7-7-7-7-|
A-7---7-7---7-7---7-7---7-7-7-7-7-7-7-7-|
E-5---5-5---5-5---5-5---5-5-5-5-5-5-5-5-|

AOD:
*
e-5---5-5---5-5---5-5---5-5-5-5-5-5-5-5-|
B-5---5-5---5-5---5-5---5-5-5-5-5-5-5-5-|
G-6---6-6---6-6---6-6---6-6-6-6-6-6-6-6-|
D-7---7-7---7-7---7-7---7-7-7-7-7-7-7-7-|
A-7---7-7---7-7---7-7---7-7-7-7-7-7-7-7-|
E-5---5-5---5-5---5-5---5-5-5-5-5-5-5-5-|

Chorus:

Carl:
* Lonely nights up town dont let them bring you down.
e-5--5--5--5--5--5---5-5----5--5--5--5--5--5---5-5-|
B-7--7--7--7--7--7---7-7----5--5--5--5--5--5---5-5-|
G-7--7--7--7--7--7---7-7----6--6--6--6--6--6---6-6-|
D-7--7--7--7--7--7---7-7----7--7--7--7--7--7---7-7-|
A-5--5--5--5--5--5---5-5----7--7--7--7--7--7---7-7-|
E---------------------------5--5--5--5--5--5---5-5-|
 Lonely nights up town they'll never bring us down,
e-5--5--5--5--5--5---5-5----5--5--5--5--5--5---5-5-|
B-7--7--7--7--7--7---7-7----5--5--5--5--5--5---5-5-|
G-7--7--7--7--7--7---7-7----6--6--6--6--6--6---6-6-|
D-7--7--7--7--7--7---7-7----7--7--7--7--7--7---7-7-|
A-5--5--5--5--5--5---5-5----7--7--7--7--7--7---7-7-|
E---------------------------5--5--5--5--5--5---5-5-|
  no.
e-4-4-4-4-4-4-4-4-|
B-6-6-6-6-6-6-6-6-|
G-6-6-6-6-6-6-6-6-|
D-6-6-6-6-6-6-6-6-|
A-4-4-4-4-4-4-4-4-|
E-----------------|

Stan:
*
e-------------------------------------------------------|
B-----10-------10--7-7-7-7---------------10--10--10-8-7-|
G-11-----11--9-----7-7-7-7--/-6-6-6-6-6-----------------|
D---------------------------/-7-7-7-7-7-----------------|
A-------------------------------------------------------|
E-------------------------------------------------------|

e-------------------------------------------------------|
B-----10-------10--7-7-7-7---------------10--10--10-8-7-|
G-11-----11--9-----7-7-7-7--/-6-6-6-6-6-----------------|
D---------------------------/-7-7-7-7-7-----------------|
A-------------------------------------------------------|
E-------------------------------------------------------|

COD:
*
e-5--5--5--5--5--5---5-5----5--5--5--5--5--5---5-5-|
B-7--7--7--7--7--7---7-7----5--5--5--5--5--5---5-5-|
G-7--7--7--7--7--7---7-7----6--6--6--6--6--6---6-6-|
D-7--7--7--7--7--7---7-7----7--7--7--7--7--7---7-7-|
A-5--5--5--5--5--5---5-5----7--7--7--7--7--7---7-7-|
E---------------------------5--5--5--5--5--5---5-5-|

e-5--5--5--5--5--5---5-5----5--5--5--5--5--5---5-5-|
B-7--7--7--7--7--7---7-7----5--5--5--5--5--5---5-5-|
G-7--7--7--7--7--7---7-7----6--6--6--6--6--6---6-6-|
D-7--7--7--7--7--7---7-7----7--7--7--7--7--7---7-7-|
A-5--5--5--5--5--5---5-5----7--7--7--7--7--7---7-7-|
E---------------------------5--5--5--5--5--5---5-5-|

e-4-4-4-4-4-4-4-4-|
B-6-6-6-6-6-6-6-6-|
G-6-6-6-6-6-6-6-6-|
D-6-6-6-6-6-6-6-6-|
A-4-4-4-4-4-4-4-4-|
E-----------------|

AOD:
*
e-5--5--5--5--5--5---5-5----5--5--5--5--5--5---5-5-|
B-7--7--7--7--7--7---7-7----5--5--5--5--5--5---5-5-|
G-7--7--7--7--7--7---7-7----6--6--6--6--6--6---6-6-|
D-7--7--7--7--7--7---7-7----7--7--7--7--7--7---7-7-|
A-5--5--5--5--5--5---5-5----7--7--7--7--7--7---7-7-|
E---------------------------5--5--5--5--5--5---5-5-|

e-5--5--5--5--5--5---5-5----5--5--5--5--5--5---5-5-|
B-7--7--7--7--7--7---7-7----5--5--5--5--5--5---5-5-|
G-7--7--7--7--7--7---7-7----6--6--6--6--6--6---6-6-|
D-7--7--7--7--7--7---7-7----7--7--7--7--7--7---7-7-|
A-5--5--5--5--5--5---5-5----7--7--7--7--7--7---7-7-|
E---------------------------5--5--5--5--5--5---5-5-|

e-4-4-4-4-4-4-4-4-|
B-6-6-6-6-6-6-6-6-|
G-6-6-6-6-6-6-6-6-|
D-6-6-6-6-6-6-6-6-|
A-4-4-4-4-4-4-4-4-|
E-----------------|

Break:

Carl:

e-14--13--11----------------------14--13--11---------------------|
B-------------14--12--11----------------------14--12--11---------|
G-------------------------13--11--------------------------13--11-|
D----------------------------------------------------------------|
A----------------------------------------------------------------|
E----------------------------------------------------------------|
 Dont...           early death... Casinos...        crystal meth.
e-14--13--11----------------------14--13--11---------------------|
B-------------14--12--11----------------------14--12--11---------|
G-------------------------13--11--------------------------13--11-|
D----------------------------------------------------------------|
A----------------------------------------------------------------|
E----------------------------------------------------------------|
S Dont...           early death... Casinos...        crystal meth.
e-14--13--11----------------------14--13--11---------------------|
B-------------14--12--11----------------------14--12--11---------|
G-------------------------13--11--------------------------13--11-|
D----------------------------------------------------------------|
A----------------------------------------------------------------|
E----------------------------------------------------------------|
OD Dont...           early death... Casinos...        crystal meth.
e-14--13--11----------------------14--13--11---------------------|
B-------------14--12--11----------------------14--12--11---------|
G-------------------------13--11--------------------------13--11-|
D----------------------------------------------------------------|
A----------------------------------------------------------------|
E----------------------------------------------------------------|
 Dont...           early death... Casinos...        crystal meth.
e-14--13--11----------------------14--13--11-|
B-------------14--12--11---------------------|
G-------------------------13--11-------------|
D--------------------------------------------|
A--------------------------------------------|
E--------------------------------------------|

Stan:
S
e-----------------------------------------------------------------|
B-----------------------------------------------------------------|
G-----------------------------------------------------------------|
D-4-4-8-8-4-4---------6-6---------4-4-8-8-4-4---------6-6---------|
A-------------4-4-7-7-----7-7-4-4-------------4-4-7-7-----7-7-4-4-|
E-----------------------------------------------------------------|
O
e-----------------------------------------------------------------|
B-----------------------------------------------------------------|
G-----------------------------------------------------------------|
D-4-4-8-8-4-4---------6-6---------4-4-8-8-4-4---------6-6---------|
A-------------4-4-7-7-----7-7-4-4-------------4-4-7-7-----7-7-4-4-|
E-----------------------------------------------------------------|

e---------------------------------------------|
B---------------------------------------------|
G---------------------------------------------|
D-4-4-8-8-4-4---------6-6---------4-4-8-8-4-4-|
A-------------4-4-7-7-----7-7-4-4-------------|
E---------------------------------------------|

OD:
O
e---------------------------------------------------------------|
B-11-----------14-------------9---11-----------14-------------9-|
G---------------------------------------------------------------|
D---------------------------------------------------------------|
A---------------------------------------------------------------|
E---------------------------------------------------------------|

e---------------------------------------------------------------|
B-11-----------14-------------9---11-----------14-------------9-|
G---------------------------------------------------------------|
D---------------------------------------------------------------|
A---------------------------------------------------------------|
E---------------------------------------------------------------|

e------------------------------------|
B-11-----------14-------------9---11-|
G------------------------------------|
D------------------------------------|
A------------------------------------|
E------------------------------------|

Outro:

Carl:
*How can...be tired of England? How can...be tired of England?
e-2-2-2--2-2-2--6-6-6--6-6-6--2-2-2--2-2-2--6-6-6--6-6-6-|
B-2-2-2--2-2-2--6-6-6--6-6-6--2-2-2--2-2-2--6-6-6--6-6-6-|
G-3-3-3--3-3-3--6-6-6--6-6-6--3-3-3--3-3-3--6-6-6--6-6-6-|
D-4-4-4--4-4-4--8-8-8--8-8-8--4-4-4--4-4-4--8-8-8--8-8-8-|
A-4-4-4--4-4-4--8-8-8--8-8-8--4-4-4--4-4-4--8-8-8--8-8-8-|
E-2-2-2--2-2-2--6-6-6--6-6-6--2-2-2--2-2-2--6-6-6--6-6-6-|
How can...be tired of England? How can...be tired of England?

e-2-2-2--2-2-2--6-6-6--6-6-6--2-2-2--2-2-2--6-6-6--6-6-6-|
B-2-2-2--2-2-2--6-6-6--6-6-6--2-2-2--2-2-2--6-6-6--6-6-6-|
G-3-3-3--3-3-3--6-6-6--6-6-6--3-3-3--3-3-3--6-6-6--6-6-6-|
D-4-4-4--4-4-4--8-8-8--8-8-8--4-4-4--4-4-4--8-8-8--8-8-8-|
A-4-4-4--4-4-4--8-8-8--8-8-8--4-4-4--4-4-4--8-8-8--8-8-8-|
E-2-2-2--2-2-2--6-6-6--6-6-6--2-2-2--2-2-2--6-6-6--6-6-6-|

e-5-5-5-5-5--5-5-5-5-5--4-4-4-4-4---8--|
B-7-7-7-7-7--7-7-7-7-7--6-6-6-6-6---8--|
G-7-7-7-7-7--7-7-7-7-7--6-6-6-6-6---9b-|
D-7-7-7-7-7--7-7-7-7-7--6-6-6-6-6--10b-|
A-5-5-5-5-5--5-5-5-5-5--4-4-4-4-4--10b-|
E-----------------------------------8b-|

Stan:
*
e------------------------6-6-6------------------------6-6-6-|
B------------------------6-6-6------------------------6-6-6-|
G------------------------6h7--------------------------6h7---|
D------------------------6h8--------------------------6h8---|
A------------------------6h8--------------------------6h8---|
E------------------------6-6--------------------------6-6---|

e------------------------6-6-6-|
B------------------------6-6-6-|
G------------------------6h7---|
D------------------------6h8---|
A------------------------6h8---|
E------------------------6-6---|


e-5-5-5-5-5--5-5-5-5-5--4-4-4-4-4---8--|
B-7-7-7-7-7--7-7-7-7-7--6-6-6-6-6---8--|
G-7-7-7-7-7--7-7-7-7-7--6-6-6-6-6---9b-|
D-7-7-7-7-7--7-7-7-7-7--6-6-6-6-6--10b-|
A-5-5-5-5-5--5-5-5-5-5--4-4-4-4-4--10b-|
E-----------------------------------8b-|

COD:
*
e--------------------------------------------------------|
B-10--10--10----8--8--8---7----10--10--10----8--8--8---7-|
G-10--10--10----8--8--8---7----10--10--10----8--8--8---7-|
D--------------------------------------------------------|
A--------------------------------------------------------|
E--------------------------------------------------------|

e--------------------------------------------------------|
B-10--10--10----8--8--8---7----10--10--10----8--8--8---7-|
G-10--10--10----8--8--8---7----10--10--10----8--8--8---7-|
D--------------------------------------------------------|
A--------------------------------------------------------|
E--------------------------------------------------------|


e-5-5-5-5-5--5-5-5-5-5--4-4-4-4-4---8--|
B-7-7-7-7-7--7-7-7-7-7--6-6-6-6-6---8--|
G-7-7-7-7-7--7-7-7-7-7--6-6-6-6-6---9b-|
D-7-7-7-7-7--7-7-7-7-7--6-6-6-6-6--10b-|
A-5-5-5-5-5--5-5-5-5-5--4-4-4-4-4--10b-|
E-----------------------------------8b-|

AOD:
*


e-2-2-2--2-2-2--6-6-6--6-6-6--2-2-2--2-2-2--6-6-6--6-6-6-|
B-2-2-2--2-2-2--6-6-6--6-6-6--2-2-2--2-2-2--6-6-6--6-6-6-|
G-3-3-3--3-3-3--6-6-6--6-6-6--3-3-3--3-3-3--6-6-6--6-6-6-|
D-4-4-4--4-4-4--8-8-8--8-8-8--4-4-4--4-4-4--8-8-8--8-8-8-|
A-4-4-4--4-4-4--8-8-8--8-8-8--4-4-4--4-4-4--8-8-8--8-8-8-|
E-2-2-2--2-2-2--6-6-6--6-6-6--2-2-2--2-2-2--6-6-6--6-6-6-|

e-2-2-2--2-2-2--6-6-6--6-6-6--2-2-2--2-2-2--6-6-6--6-6-6-|
B-2-2-2--2-2-2--6-6-6--6-6-6--2-2-2--2-2-2--6-6-6--6-6-6-|
G-3-3-3--3-3-3--6-6-6--6-6-6--3-3-3--3-3-3--6-6-6--6-6-6-|
D-4-4-4--4-4-4--8-8-8--8-8-8--4-4-4--4-4-4--8-8-8--8-8-8-|
A-4-4-4--4-4-4--8-8-8--8-8-8--4-4-4--4-4-4--8-8-8--8-8-8-|
E-2-2-2--2-2-2--6-6-6--6-6-6--2-2-2--2-2-2--6-6-6--6-6-6-|

e-5-5-5-5-5--5-5-5-5-5--4-4-4-4-4---8--|
B-7-7-7-7-7--7-7-7-7-7--6-6-6-6-6---8--|
G-7-7-7-7-7--7-7-7-7-7--6-6-6-6-6---9b-|
D-7-7-7-7-7--7-7-7-7-7--6-6-6-6-6--10b-|
A-5-5-5-5-5--5-5-5-5-5--4-4-4-4-4--10b-|
E-----------------------------------8b-|
Tap to rate this tab
# A B C D E F G H I J K L M N O P Q R S T U V W X Y Z