Song name
# A B C D E F G H I J K L M N O P Q R S T U V W X Y Z

Dirty Pretty Things - Band Bang Youre Dead tab

Tabbed by DaveWilk
s= slide
h = hammer on

--------------------------------------------------------------------|
----------------13---13--13 h 14-------14--14 h 15------------------|
--12 s 14----14---14-------------------------------14--12 s 10------|
--------------------------------------------------------------------|
--------------------------------------------------------------------|
--------------------------------------------------------------------|

(You dont have to play the 13 s 12 you can play just play another
9th fret B string instead, although the slide adds a little more feel)
--------------------------------------------------------------------|
-------9-9-----------------9--------------------10-9--10------------|
----10------13 s 12-----------12------------------------------------|
-12-------------------------------11-11-----12----------------------|
--------------------------------------------------------------------|
--------------------------------------------------------------------|
Tap to rate this tab
 
# A B C D E F G H I J K L M N O P Q R S T U V W X Y Z