Song name
# A B C D E F G H I J K L M N O P Q R S T U V W X Y Z

Dirty Pretty Things - You Fucking Love It tab

First time tabbing something, but i think its pretty much correct.

Song; You Fucking Love It
Band; Dirty Pretty Things
Tabbed by; Hawky
Tuning; Standard

Chords used;

   E A D G B e
A  0 0 2 2 2 0
B  2 2 4 4 4 2
D  5 5 7 7 7 5
E  7 7 9 9 9 7
B* 7 9 9 8 7 7
A  5 7 7 6 5 5
G  3 5 5 4 3 3
F# 2 4 4 3 2 2


Intro;

   B       D       B       D       B       D       A

e--2-2-2---5-5-5---2-2-2---5-5-5---2-2-2---5-5-5---0---------------|
B--4-4-4---7-7-7---4-4-4---7-7-7---4-4-4---7-7-7---2---------------|
G--4-4-4---7-7-7---4-4-4---7-7-7---4-4-4---7-7-7---2---------------|
D--4-4-4---7-7-7---4-4-4---7-7-7---4-4-4---7-7-7---2---------------|
A--2-2-2---5-5-5---2-2-2---5-5-5---2-2-2---5-5-5---0---------------|
E--2-2-2---5-5-5---2-2-2---5-5-5---2-2-2---5-5-5---0---------------|
                                                   ^ held

Verse 1 ('She can never ever ever ever...')
   B       D       B       D       B       D       A

e--2-2-2---5-5-5---2-2-2---5-5-5---2-2-2---5-5-5---0---0---0---0---|
B--4-4-4---7-7-7---4-4-4---7-7-7---4-4-4---7-7-7---2---2---2---2---|
G--4-4-4---7-7-7---4-4-4---7-7-7---4-4-4---7-7-7---2---2---2---2---|
D--4-4-4---7-7-7---4-4-4---7-7-7---4-4-4---7-7-7---2---2---2---2---|
A--2-2-2---5-5-5---2-2-2---5-5-5---2-2-2---5-5-5---0---0---0---0---|
E--2-2-2---5-5-5---2-2-2---5-5-5---2-2-2---5-5-5---0---0---0---0---| x 2

   B       D       B       D       B       D       A

e--2-2-2---5-5-5---2-2-2---0-0-0---2-2-2---5-5-5---0---0---0---0---|
B--4-4-4---7-7-7---4-4-4---2-2-2---4-4-4---7-7-7---2---2---2---2---|
G--4-4-4---7-7-7---4-4-4---2-2-2---4-4-4---7-7-7---2---2---2---2---|
D--4-4-4---7-7-7---4-4-4---2-2-2---4-4-4---7-7-7---2---2---2---2---|
A--2-2-2---5-5-5---2-2-2---0-0-0---2-2-2---5-5-5---0---0---0---0---|
E--2-2-2---5-5-5---2-2-2---0-0-0---2-2-2---5-5-5---0---0---0---0---|

   B       D       B       D       B       D       A

e--2-2-2---5-5-5---2-2-2---5-5-5---2-2-2---5-5-5---0---0---0---0---|
B--4-4-4---7-7-7---4-4-4---7-7-7---4-4-4---7-7-7---2---2---2---2---|
G--4-4-4---7-7-7---4-4-4---7-7-7---4-4-4---7-7-7---2---2---2---2---|
D--4-4-4---7-7-7---4-4-4---7-7-7---4-4-4---7-7-7---2---2---2---2---|
A--2-2-2---5-5-5---2-2-2---5-5-5---2-2-2---5-5-5---0---0---0---0---|
E--2-2-2---5-5-5---2-2-2---5-5-5---2-2-2---5-5-5---0---0---0---0---|


Chorus

   B*     A        G      F#       B*

e--7-7----5-5-5-5--3-3----2-2-2-2--7-7----7-7-7-7--7-7----7-7-7-7--|
B--7-7----5-5-5-5--3-3----2-2-2-2--7-7----7-7-7-7--7-7----7-7-7-7--|
G--8-8----6-6-6-6--4-4----3-3-3-3--8-8----8-8-8-8--8-8----8-8-8-8--|
D--9-9----7-7-7-7--5-5----4-4-4-4--9-9----9-9-9-9--9-9----9-9-9-9--|
A--9-9----7-7-7-7--5-5----4-4-4-4--9-9----9-9-9-9--9-9----9-9-9-9--|
E--7-7----5-5-5-5--3-3----2-2-2-2--7-7----7-7-7-7--7-7----7-7-7-7--|

   B*     A        G      F#       B*

e--7-7----5-5-5-5--3-3----2-2-2-2--7-7----7-7-7-7---7---7---7---7--|
B--7-7----5-5-5-5--3-3----2-2-2-2--7-7----7-7-7-7---7---7---7---7--|
G--8-8----6-6-6-6--4-4----3-3-3-3--8-8----8-8-8-8---8---8---8---8--|
D--9-9----7-7-7-7--5-5----4-4-4-4--9-9----9-9-9-9---9---9---9---9--|
A--9-9----7-7-7-7--5-5----4-4-4-4--9-9----9-9-9-9---9---9---9---9--|
E--7-7----5-5-5-5--3-3----2-2-2-2--7-7----7-7-7-7---7---7---7---7--|


Bridge 

   B       D       B       D       B       D        A

e--2-2-2---5-5-5---2-2-2---5-5-5---2-2-2---5-5-5----7----7--7--7---|
B--4-4-4---7-7-7---4-4-4---7-7-7---4-4-4---7-7-7----9----9--9--9---|
G--4-4-4---7-7-7---4-4-4---7-7-7---4-4-4---7-7-7----9----9--9--9---|
D--4-4-4---7-7-7---4-4-4---7-7-7---4-4-4---7-7-7----9----9--9--9---|
A--2-2-2---5-5-5---2-2-2---5-5-5---2-2-2---5-5-5----7----7--7--7---|
E--2-2-2---5-5-5---2-2-2---5-5-5---2-2-2---5-5-5----7----7--7--7---|


Verse Two ('Drunk as a skunk, thick as a thief, always the same since she was thirteen...')

   B       D       B       D       B       D       A

e--2-2-2---5-5-5---2-2-2---5-5-5---2-2-2---5-5-5---0-0-0-0-0-0-0-0-|
B--4-4-4---7-7-7---4-4-4---7-7-7---4-4-4---7-7-7---2-2-2-2-2-2-2-2-|
G--4-4-4---7-7-7---4-4-4---7-7-7---4-4-4---7-7-7---2-2-2-2-2-2-2-2-|
D--4-4-4---7-7-7---4-4-4---7-7-7---4-4-4---7-7-7---2-2-2-2-2-2-2-2-|
A--2-2-2---5-5-5---2-2-2---5-5-5---2-2-2---5-5-5---0-0-0-0-0-0-0-0-|
E--2-2-2---5-5-5---2-2-2---5-5-5---2-2-2---5-5-5---0-0-0-0-0-0-0-0-| x2

 
Chorus

   B*     A        G      F#       B*

e--7-7----5-5-5-5--3-3----2-2-2-2--7-7----7-7-7-7--7-7----7-7-7-7--|
B--7-7----5-5-5-5--3-3----2-2-2-2--7-7----7-7-7-7--7-7----7-7-7-7--|
G--8-8----6-6-6-6--4-4----3-3-3-3--8-8----8-8-8-8--8-8----8-8-8-8--|
D--9-9----7-7-7-7--5-5----4-4-4-4--9-9----9-9-9-9--9-9----9-9-9-9--|
A--9-9----7-7-7-7--5-5----4-4-4-4--9-9----9-9-9-9--9-9----9-9-9-9--|
E--7-7----5-5-5-5--3-3----2-2-2-2--7-7----7-7-7-7--7-7----7-7-7-7--|

   B*     A        G      F#       B*

e--7-7----5-5-5-5--3-3----2-2-2-2--7-7----7-7-7-7---7---7---7---7--|
B--7-7----5-5-5-5--3-3----2-2-2-2--7-7----7-7-7-7---7---7---7---7--|
G--8-8----6-6-6-6--4-4----3-3-3-3--8-8----8-8-8-8---8---8---8---8--|
D--9-9----7-7-7-7--5-5----4-4-4-4--9-9----9-9-9-9---9---9---9---9--|
A--9-9----7-7-7-7--5-5----4-4-4-4--9-9----9-9-9-9---9---9---9---9--|
E--7-7----5-5-5-5--3-3----2-2-2-2--7-7----7-7-7-7---7---7---7---7--|


Bit (Let it ring)
   B*              A               B*              A

e--7---------------5---------------7---------------5---------------|
B--7---------------5---------------7---------------5---------------|
G--8---------------6---------------8---------------6---------------|
D--9---------------7---------------9---------------7---------------|
A--9---------------7---------------9---------------7---------------|
E--7---------------5---------------7---------------5---------------|

   F#                                                         A B*

e--2---------------2---------------2-------2-------2---2---2--5-7--|
B--2---------------2---------------2-------2-------2---2---2--5-7--|
G--3---------------3---------------3-------3-------3---3---3--6-8--|
D--4---------------4---------------4-------4-------4---4---4--7-9--|
A--4---------------4---------------4-------4-------4---4---4--7-9--|
E-02--------------02--------------02------02------02--02--02--5-7--|


Solo - haven't been bothered to do it yet, will do it soon - promise


Chorus
   B*     A        G      F#       B*

e--7-7----5-5-5-5--3-3----2-2-2-2--7-7----7-7-7-7--7-7----7-7-7-7--|
B--7-7----5-5-5-5--3-3----2-2-2-2--7-7----7-7-7-7--7-7----7-7-7-7--|
G--8-8----6-6-6-6--4-4----3-3-3-3--8-8----8-8-8-8--8-8----8-8-8-8--|
D--9-9----7-7-7-7--5-5----4-4-4-4--9-9----9-9-9-9--9-9----9-9-9-9--|
A--9-9----7-7-7-7--5-5----4-4-4-4--9-9----9-9-9-9--9-9----9-9-9-9--|
E--7-7----5-5-5-5--3-3----2-2-2-2--7-7----7-7-7-7--7-7----7-7-7-7--|

   B*     A        G      F#       B*

e--7-7----5-5-5-5--3-3----2-2-2-2--7-7----7-7-7-7------------------|
B--7-7----5-5-5-5--3-3----2-2-2-2--7-7----7-7-7-7------------------|
G--8-8----6-6-6-6--4-4----3-3-3-3--8-8----8-8-8-8------------------|
D--9-9----7-7-7-7--5-5----4-4-4-4--9-9----9-9-9-9------------------|
A--9-9----7-7-7-7--5-5----4-4-4-4--9-9----9-9-9-9------------------|
E--7-7----5-5-5-5--3-3----2-2-2-2--7-7----7-7-7-7------------------|


Bit (Let it ring)
   B*              A               B*              A

e--7---------------5---------------7---------------5---------------|
B--7---------------5---------------7---------------5---------------|
G--8---------------6---------------8---------------6---------------|
D--9---------------7---------------9---------------7---------------|
A--9---------------7---------------9---------------7---------------|
E--7---------------5---------------7---------------5---------------|

   F#                                        
e--2---------------2---------------2-------2-------2---2---2---2---|
B--2---------------2---------------2-------2-------2---2---2---2---|
G--3---------------3---------------3-------3-------3---3---3---3---|
D--4---------------4---------------4-------4-------4---4---4---4---|
A--4---------------4---------------4-------4-------4---4---4---4---|
E-02--------------02--------------02------02------02--02--02--02---|

   A B*

e--5-7--------------|
B--5-7--------------|
G--6-8--------------|
D--7-9--------------|
A--7-9--------------|
E--5-7--------------|


Outro - Random notes, will also do soon.
This is what I think anyway =]
Tap to rate this tab
# A B C D E F G H I J K L M N O P Q R S T U V W X Y Z