Song name
# A B C D E F G H I J K L M N O P Q R S T U V W X Y Z

Dirty Pretty Things - Blood Thirsty Bastards Acoustic tab

Dirty Pretty Things
Blood Thirsty Bastards Acoustic



Intro

E|---4---4-----------------------4---4-----------------------|
B|---5-------5---7---5-------5---5-------5---7---5-------5---|
G|---6-------------------6-------6-------------------6-------|
D|---6---------------------------6---------------------------|
A|-----------------------------------------------------------|
E|-----------------------------------------------------------|



E|---4---4-----------------------4---4------------------------|
B|---5-------5---7---5-------5---5-------5---7----------------|
G|---6-------------------6-------6------------------4--5--6---|
D|---6---------------------------6------------------4--5--6---|
A|--------------------------------------------------2--3--4---|
E|------------------------------------------------------------|



C#m                     G#7
The world seems out of touch now,
                    A
I don't get out so much,
                  E
I don't feel the same
          G#7
In these bones anymore
C#m                   G#7
My heels are all worn down
                  A
My loyalties are torn
                        E
I'm finding different paths now
   G#7
I never saw before


 A                       F#m
And it hurts less every day
                   B
The paths lead me away
          G#7
Lead me away from those



C#m     A        E
Blood Thirsty Bastards
        G#7      C#m   A
Making plans for no one
 E        G#7
But themselves
C#m      A          E
In this world of disaster
   G#7       C#m    A
I just need someone
E    G#7
For myself


          C#m           G#7
All the sycophants and vampires
                           A
Well I packed them off to hell
                     E
Oh I've been up for days now
  G#7             C#m
I hope no one can tell
               G#7
I do my bit oh yes
                          A
To cleanse my hands from lies
                     E
I'm feeding up the zombies
  G#7                  A
Hatched from their own eyes


               F#m
And from these eyes
                       B
The weary eyes-come shadows
       G#7
Of a very different man


C#m     A        E
Blood Thirsty Bastards
        G#7      C#m   A
Making plans for no one
 E        G#7
But their own
C#m         A          E
I've got to be my own master
     G#7               C#m         A          E     G#7
Get away from these braggards, tricksters, foolish clones


 A         E          A           E
Oh look at how they laugh at you now
 E           F#m              E         F#m
What did you do to make this bad become true
 A           E
For heavens sake
        A       E
such a silly mistake
           D             G#7
You're a legend in your mind
        D             G#7
But a rumour in your room



C#m                   G#7
They all followed me down here
                    A
To an alleys dirty end
                     E
Oh I had nothing to give them
         G#7                  A
I just thought they were my friends


               F#m
Doesn't matter now
             B
I'm angry anyhow
           G#7
So its the best way I can deal with


C#m    A         E
Blood Thirsty Bastards
       G#7       C#m   A
Making plans for no one
 E        G#7
But their kind

C#m   A        E
Only now do I see it
   G#7         C#m      A
I know I don't need it, no
        E      G#7
I pay them no mind
 C#m   A         E
Blood Thirsty Bastards
        G#7     C#m    A
Making plans for no one
E       G#7
But themselves
C#m      A          E
In this world of disaster
   G#7       C#m   A
I just need someone
E      G#7
For myself



E|---4---4-----------------------4---4-----------------------|
B|---5-------5---7---5-------5---5-------5---7---5-------5---|
G|---6-------------------6-------6-------------------6-------|
D|---6---------------------------6---------------------------|
A|-----------------------------------------------------------|
E|-----------------------------------------------------------|



E|---4---4-----------------------4---4--------------------4---|
B|---5-------5---7---5-------5---5-------5---7------------5---|
G|---6-------------------6-------6------------------4--5--6---|
D|---6---------------------------6------------------4--5--6---|
A|--------------------------------------------------2--3--4---|
E|------------------------------------------------------------|
Tap to rate this tab
# A B C D E F G H I J K L M N O P Q R S T U V W X Y Z