Guitaretab - guitar tabs
Song name
# A B C D E F G H I J K L M N O P Q R S T U V W X Y Z

Dirty Pretty Things - Deadwood tab

Intro  Guitar 1

E|-1-1-1-1-1-1-1-1-3-3-3-5-5-5-5-5-5-5-5-5-5-|
B|-3-3-3-3-1-1-1-1-3-3-3-5-5-5-5-5-5-5-5-5-5-|
G|-------------------------6-6-6-6-6-6-6-6-6-|
D|-------------------------7-7-7-7-7-7-7-7-7-|
A|-------------------------7-7-7-7-7-7-7-7-7-|
E|-------------------------5-5-5-5-5-5-5-5-5-|


Verses - Guitar 1 or 2 or both..you know..whatever boats your float.

 Dm

E|--5--5--x---5--5--x---5--5--x---5--5--5-----------|
B|--6--6--x---6--6--x---6--6--x---6--6--6-----------|
G|--7--7--x---7--7--x---7--7--x---7--7--7-----------|
D|--7--7--x---7--7--x---7--7--x---7--7--7-----------|
A|--5--5--x---5--5--x---5--5--x---5--5--5-----------|
E|--------------------------------------------------|


 F

E|--1--1--x----1--1--x-----1--1--x----1--1--1-------|
B|--1--1--x----1--1--x-----1--1--x----1--1--1-------|
G|--2--2--x----2--2--x-----2--2--x----2--2--2-------|
D|--3--3--x----3--3--x-----3--3--x----3--3--3-------|
A|--3--3--x----3--3--x-----3--3--x----3--3--3-------|
E|--1--1--x----1--1--x-----1--1--x----1--1--1-------|


 Gm

E|--3--3--x----3--3--x-----3--3--x----3--3--3-------|
B|--3--3--x----3--3--x-----3--3--x----3--3--3-------|
G|--3--3--x----3--3--x-----3--3--x----3--3--3-------|
D|--5--5--x----5--5--x-----5--5--x----5--5--3-------|
A|--5--5--x----5--5--x-----5--5--x----5--5--3-------|
E|--3--3--x----3--3--x-----3--3--x----3--3--3-------|

 A

E|--5--5--x----5--5--x---5--5--x---5--5--x----------|
B|--5--5--x----5--5--x---5--5--x---5--5--x----------|
G|--6--6--x----6--6--x---6--6--x---6--6--x----------|
D|--7--7--x----7--7--x---7--7--x---7--7--x----------|
A|--7--7--x----7--7--x---7--7--x---7--7--x----------|
E|--5--5--x----5--5--x---5--5--x---5--5--x----------|

Play Verse twice

Chorus - Same as verse

Post Chorus -


Guitar 1

E|--5-----5-----5-----5-------------------------------|
B|--6-----6-----6-----6-------------------------------|
G|--7-----7-----7-----7-------------------------------|
D|--7-----7-----7-----7-------------------------------|
A|--5-----5-----5-----5-------------------------------|
E|----------------------------------------------------|

Guitar 2
E|----------------------------------------------------|
B|----------------------------------------------------|
G|----2/14---13/14--13/14-----------------------------|
D|----0/12---11/12--11/12-----------------------------|
A|----------------------------------------------------|
E|----------------------------------------------------|


Guitar 1
E|--1-----1-----1-----1-------------------------------|
B|--1-----1-----1-----1-------------------------------|
G|--2-----2-----2-----2-------------------------------|
D|--3-----3-----3-----3-------------------------------|
A|--3-----3-----3-----3-------------------------------|
E|--1-----1-----1-----1-------------------------------|
[ Tab from: http://www.guitaretab.com/d/dirty-pretty-things/69809.html ]
Guitar 2
E|----------------------------------------------------|
B|----------------------------------------------------|
G|----2/14---13/14--13/14-----------------------------|
D|----3/15---14/15--14/15-----------------------------|
A|----------------------------------------------------|
E|----------------------------------------------------|

Verse 2 -

Dm

E|--5~~~--------|
B|--6~~~--------|
G|--7~~~--------|
D|--7~~~--------|
A|--5~~~--------|
E|--------------|

F

E|--1~~~--------|
B|--2~~~--------|
G|--2~~~--------|
D|--3~~~--------|
A|--3~~---------|
E|--1~~~--------|

Gm

E|--3~~-----------3-|
B|--3~~--------3----|
G|--3~~-----3-------|
D|--5~~--5----------|
A|--5~~-------------|
E|--3~~-------------|

A

E|--5--5--x----5--5--x---5--5--x---5--5--x----------|
B|--5--5--x----5--5--x---5--5--x---5--5--x----------|
G|--6--6--x----6--6--x---6--6--x---6--6--x----------|
D|--7--7--x----7--7--x---7--7--x---7--7--x----------|
A|--7--7--x----7--7--x---7--7--x---7--7--x----------|
E|--5--5--x----5--5--x---5--5--x---5--5--x----------|

Dm

E|--5--5--x---5--5--x---5--5--x---5--5--5-----------|
B|--6--6--x---6--6--x---6--6--x---6--6--6-----------|
G|--7--7--x---7--7--x---7--7--x---7--7--7-----------|
D|--7--7--x---7--7--x---7--7--x---7--7--7-----------|
A|--5--5--x---5--5--x---5--5--x---5--5--5-----------|
E|--------------------------------------------------|


F

E|--1--1--x----1--1--x-----1--1--x----1--1--1-------|
B|--1--1--x----1--1--x-----1--1--x----1--1--1-------|
G|--2--2--x----2--2--x-----2--2--x----2--2--2-------|
D|--3--3--x----3--3--x-----3--3--x----3--3--3-------|
A|--3--3--x----3--3--x-----3--3--x----3--3--3-------|
E|--1--1--x----1--1--x-----1--1--x----1--1--1-------|


Gm

E|--3--3--x----3--3--x-----3--3--x----3--3--3-------|
B|--3--3--x----3--3--x-----3--3--x----3--3--3-------|
G|--3--3--x----3--3--x-----3--3--x----3--3--3-------|
D|--5--5--x----5--5--x-----5--5--x----5--5--3-------|
A|--5--5--x----5--5--x-----5--5--x----5--5--3-------|
E|--3--3--x----3--3--x-----3--3--x----3--3--3-------|

A

E|--5--5--x----5--5--x---5--5--x---5--5--x----------|
B|--5--5--x----5--5--x---5--5--x---5--5--x----------|
G|--6--6--x----6--6--x---6--6--x---6--6--x----------|
D|--7--7--x----7--7--x---7--7--x---7--7--x----------|
A|--7--7--x----7--7--x---7--7--x---7--7--x----------|
E|--5--5--x----5--5--x---5--5--x---5--5--x----------|

Chorus - Same as verse 1

Bridge - again....guitar 1 or 2

e|-----8----8----8--8-------------3-----3----3-3-------------|
B|-----10---10---10-10------------3-----3----3-3-------------|
G|-----10---10---10-10------------3-----3----3-3-------------|
D|-----10---10---10-10------------3-----3----3-3-------------|
A|-----8----8----8--8-------------5-----5----5-5-------------|
E|--------------------------------3-----3----3-3-------------|

Play Bridge 6 times and then

E|--5----|
B|--5----|
G|--6----| X 16 (fast strumming)
D|--7----|
A|--7----|
E|--5----|

Chorus - Same as verse 1

Outro - Same as Post Chorus. Play twice, and then strum

E|--5----|
B|--5----|
G|--6----|
D|--7----|
A|--7----|
E|--5----|

16 Times and end on Dm

Heres the song order if you dont understand. Also, just listen to the song to work
out. Its not a hard song.

Intro
Verse
Chorus
Post Chorus
Verse 2
Chorus
Post Chorus
Bridge
Outro

Any comments, Suggestions, Abuse, threats and anything else you can think of,
email me....Alexbarraclough@hotmail.com

Cheers, Please rate.
Related for Deadwood tab