Song name
# A B C D E F G H I J K L M N O P Q R S T U V W X Y Z

Dirty Pretty Things - You Fucking Love It tab

Dirty Pretty Things
Your Fucking Love It (Solo)
Waterloo to Anywhere
Tabbed by Jaggers

I was waiting for someone else to tab this but I got tired of waiting so I tabbed it 
I'm pretty sure its right.
Play it rough to the edges as it sounds better like that, if you listen to the song your understand.

E|------------------------------------------------------|
B|--12-12-11-11-------------12-12-11-11-7-7-------------|
G|--------------9-9-9-9-9------------------9-9-9--------|
D|------------------------------------------------------|
A|------------------------------------------------------|
E|------------------------------------------------------|

E|-------------------------------------------------------------------------|
B|-12-12-12-12-12-12-12-12-14-14-14-14-14-14-14-14-16-16-16-16-16-16-16-16-|
G|-------------------------------------------------------------------------|
D|-------------------------------------------------------------------------|
A|-------------------------------------------------------------------------|
E|-------------------------------------------------------------------------|

      Ho Ho            Ho Ho            Ho Ho  (as you bend pick 12 3 times)
E|-----------10---------------10---------------10------12/\/\/\---|
B|-10-11-12-----12--10-11-12-----12--10-11-12-----12--------------|
G|----------------------------------------------------------------|
D|----------------------------------------------------------------|
A|----------------------------------------------------------------|
E|----------------------------------------------------------------|

      Ho Ho            Ho Ho
E|-----------10---------------10----|
B|-10-11-12-----12--10-11-12-----12-|
G|----------------------------------|
D|----------------------------------|
A|----------------------------------|
E|----------------------------------|

E|-10-10-10-10-12-12-12-12-14-14-14-14-16-16-16-16--|
B|--------------------------------------------------|
G|--------------------------------------------------|
D|--------------------------------------------------|
A|--------------------------------------------------|
E|--------------------------------------------------|

You can play it differently as its a very rough solo, so at the start you might want to 
with the 7s, its entirely up to you.
Comments and suggestions are welcome.

Ho - Hammer on
/\/\/\ - bend 3 times

For the rest of the song check out the guitar tab someones done, thats how I play it.
Tap to rate this tab
 
# A B C D E F G H I J K L M N O P Q R S T U V W X Y Z