Guitaretab - guitar tabs
Song name
# A B C D E F G H I J K L M N O P Q R S T U V W X Y Z

Dirty Pretty Things - Waterloo To Anywhere tab

Dirty Pretty Things
Waterloo To Anywhere

Carl Barat  Anthony Rossomando  Didz Hammond  Gary Powell

DPT rules why wont they come to CANADA

This is a great album a masterpiece by four extraordinarily talented muscians coming 
to create and album for all to enjoy.
I hope I have not put this albums inexhaustible greatness to shame with bad tabs and if 
have then i will be ashamed.
It is to my belief that Carl is the right channel while Anthony is the left this may not 
if you speakers dont show that but listen to it and play and you'll get the gist.

Some 3rd guitar overdubs were left out as they were severly distorted and were incapable 
being figured out.

Just thought i'd give a little briefing on the songs as what i know them.

Deadwood

Is the second single released by the band with Puffin' On A Coffin Nail and One To My 
as B-sides im not sure what its about really.

Doctors and Dealers

Is a great song all around and i believe it is a song for Pete Doherty (ex band mate) as 
two were soul mates.

Bang, Bang You're Dead

The first single by the band along with Gin and Milk (acoustic version) and Wondering 
version) as b-sides probably the most well known song by the band I believe it is about 
a song about himself.

Bloodthirsty Bastards

I believe is about the tabloids and the news and the sychophants.

Gentry Cove

I have no clue what this song is about.

Gin and Milk

Knowing Carl he'll mix somehting like that so maybe thats what its about.

The Enemy

I believe is a song about himself good Carl bad Carl.

If You Love A Woman

I dont know about this one either its just weird.

You Fucking Love It

I dont know about this one either sheesh great song though.

Wondering

I belive its being released as the third single not sure of the b-sides hmm this one is 
to put it I think its about the Libertines the past.

Last Of The Small Town Playboys

I think Carl was angry when he wrote this just they way he's put it.

B.U.R.M.A.

May not be on all albums across the world I know we dont get it in Canada but i know all about DPT soo.

All in all I believe that every song Carl writes has something to do with Pete Doherty.


Deadwood

Carls parts:

Intro
e-x-x-1-1-x-x-1-1-x-x-1-1-x-x-1-1-x-x-1-1-x-x-1-1-x-x-1-1-x-x-1-1-|
B-x-x-3-3-x-x-3-3-x-x-3-3-x-x-3-3-x-x-1-1-x-x-1-1-x-x-1-1-x-x-1-1-|
G-----------------------------------------------------------------|
D-----------------------------------------------------------------|
A-----------------------------------------------------------------|
E-----------------------------------------------------------------|
                                      A
e-x-x-3-3-x-x-3-3-x-x-3-3-x-x-3-3---5-5-5-5-5-5-5-|
B-x-x-3-3-x-x-3-3-x-x-3-3-x-x-3-3---5-5-5-5-5-5-5-|
G-----------------------------------6-6-6-6-6-6-6-|
D-----------------------------------7-7-7-7-7-7-7-|
A-----------------------------------7-7-7-7-7-7-7-|
E-----------------------------------5-5-5-5-5-5-5-|

Verse 1
   Dm                   F
e-5-xx-5-xx-5-5-5-5-5-1-xx-1-xx-1-1-1-1-1-|
B-6-xx-6-xx-5-5-5-5-5-1-xx-1-xx-1-1-1-1-1-|
G-7-xx-7-xx-6-6-6-6-6-2-xx-2-xx-2-2-2-2-2-|
D-7-xx-7-xx-7-7-7-7-7-3-xx-3-xx-3-3-3-3-3-|
A-5-xx-5-xx-7-7-7-7-7-3-xx-3-xx-3-3-3-3-3-|
E---xx---xx-5-5-5-5-5-1-xx-1-xx-1-1-1-1-1-|

                         Ending one
    Gm                    A  A# A
e-3-xx-3-xx-3-3-3-3-3-  -5-5-6--5-5-5-5-|
B-3-xx-3-xx-3-3-3-3-3-  -5-5-6--5-5-5-5-|
G-3-xx-3-xx-3-3-3-3-3-  -6-6-7--6-6-6-6-|
D-5-xx-5-xx-5-5-5-5-5-  -7-7-8--7-7-7-7-|
A-5-xx-5-xx-5-5-5-5-5-  -7-7-8--7-7-7-7-|
E-3-xx-3-xx-3-3-3-3-3-  -5-5-6--5-5-5-5-|

   Dm                   F
e-5-xx-5-xx-5-5-5-5-5-1-xx-1-xx-1-1-1-1-1-|
B-6-xx-6-xx-5-5-5-5-5-1-xx-1-xx-1-1-1-1-1-|
G-7-xx-7-xx-6-6-6-6-6-2-xx-2-xx-2-2-2-2-2-|
D-7-xx-7-xx-7-7-7-7-7-3-xx-3-xx-3-3-3-3-3-|
A-5-xx-5-xx-7-7-7-7-7-3-xx-3-xx-3-3-3-3-3-|
E---xx---xx-5-5-5-5-5-1-xx-1-xx-1-1-1-1-1-|

  A         G# G
e-5-5-5-5-5-4--3-|
B-5-5-5-5-5-4--3-|
G-6-6-6-6-6-5--4-|
D-7-7-7-7-7-6--5-|
A-7-7-7-7-7-6--5-|
E-5-5-5-5-5-4--3-|

Chorus
  Dm         F              Gm
e-5-5-5-5-5-1-1-1-1-1-1-1-1-3-3-3-3-3-3-3-3-3-|
B-6-6-6-6-6-1-1-1-1-1-1-1-1-3-3-3-3-3-3-3-3-3-|
G-7-7-7-7-7-2-2-2-2-2-2-2-2-3-3-3-3-3-3-3-3-3-|
D-7-7-7-7-7-3-3-3-3-3-3-3-3-5-5-5-5-5-5-5-5-5-|
A-5-5-5-5-5-3-3-3-3-3-3-3-3-5-5-5-5-5-5-5-5-5-|
E-----------1-1-1-1-1-1-1-1-3-3-3-3-3-3-3-3-3-|

  A
e-5-5------------|
B-5-5--7-5-5-6-5-|
G-6-6--7-5-5-6-5-|
D-7-7------------|
A-7-7------------|
e-5-5------------|


Dm         F              Gm
e-5-5-5-5-5-1-1-1-1-1-1-1-1-3-3-3-3-3-3-3-3-3-|
B-6-6-6-6-6-1-1-1-1-1-1-1-1-3-3-3-3-3-3-3-3-3-|
G-7-7-7-7-7-2-2-2-2-2-2-2-2-3-3-3-3-3-3-3-3-3-|
D-7-7-7-7-7-3-3-3-3-3-3-3-3-5-5-5-5-5-5-5-5-5-|
A-5-5-5-5-5-3-3-3-3-3-3-3-3-5-5-5-5-5-5-5-5-5-|
E-----------1-1-1-1-1-1-1-1-3-3-3-3-3-3-3-3-3-|

  A    G# G
e-5-5-5-4-3-|
B-5-5-5-4-3-|
G-6-6-6-5-4-|
D-7-7-7-6-5-|
A-7-7-7-6-5-|
E-5-5-5-4-3-|

Post Chorus
   Dm            F           Dm            F
e-5--5--5--5--1--1--1--1--5--5--5--5--1--1--1--1-|
B-6--6--6--6--1--1--1--1--6--6--6--6--1--1--1--1-|
G-7--7--7--7--2--2--2--2--7--7--7--7--2--2--2--2-|
D-7--7--7--7--3--3--3--3--7--7--7--7--3--3--3--3-|
A-5--5--5--5--3--3--3--3--5--5--5--5--3--3--3--3-|

Verse 2
 Dm F Gm               A  A#  A
e-5-1--3-3-----3-----3-5-5-6-5-5-5-5-|
B-6-1--3---3-----3-----5-5-6-5-5-5-5-|
G-7-2--4-----3-----3---6-6-7-6-6-6-6-|
D-7-3--5---------------7-7-8-7-7-7-7-|
A-5-3--5---------------7-7-8-7-7-7-7-|
E---1--3---------------5-5-6-5-5-5-5-|

   Dm                   F
e-5-xx-5-xx-5-5-5-5-5-1-xx-1-xx-1-1-1-1-1-|
B-6-xx-6-xx-5-5-5-5-5-1-xx-1-xx-1-1-1-1-1-|
G-7-xx-7-xx-6-6-6-6-6-2-xx-2-xx-2-2-2-2-2-|
D-7-xx-7-xx-7-7-7-7-7-3-xx-3-xx-3-3-3-3-3-|
A-5-xx-5-xx-7-7-7-7-7-3-xx-3-xx-3-3-3-3-3-|
E---xx---xx-5-5-5-5-5-1-xx-1-xx-1-1-1-1-1-|

  A         G# G
e-5-5-5-5-5-4--3-|
B-5-5-5-5-5-4--3-|
G-6-6-6-6-6-5--4-|
D-7-7-7-7-7-6--5-|
A-7-7-7-7-7-6--5-|
E-5-5-5-5-5-4--3-|

Chorus
  Dm         F              Gm
e-5-5-5-5-5-1-1-1-1-1-1-1-1-3-3-3-3-3-3-3-3-3-|
B-6-6-6-6-6-1-1-1-1-1-1-1-1-3-3-3-3-3-3-3-3-3-|
G-7-7-7-7-7-2-2-2-2-2-2-2-2-3-3-3-3-3-3-3-3-3-|
D-7-7-7-7-7-3-3-3-3-3-3-3-3-5-5-5-5-5-5-5-5-5-|
A-5-5-5-5-5-3-3-3-3-3-3-3-3-5-5-5-5-5-5-5-5-5-|
E-----------1-1-1-1-1-1-1-1-3-3-3-3-3-3-3-3-3-|

  A
e-5-5------------|
B-5-5--7-5-5-6-5-|
G-6-6--7-5-5-6-5-|
D-7-7------------|
A-7-7------------|
e-5-5------------|


Dm         F              Gm
e-5-5-5-5-5-1-1-1-1-1-1-1-1-3-3-3-3-3-3-3-3-3-|
B-6-6-6-6-6-1-1-1-1-1-1-1-1-3-3-3-3-3-3-3-3-3-|
G-7-7-7-7-7-2-2-2-2-2-2-2-2-3-3-3-3-3-3-3-3-3-|
D-7-7-7-7-7-3-3-3-3-3-3-3-3-5-5-5-5-5-5-5-5-5-|
A-5-5-5-5-5-3-3-3-3-3-3-3-3-5-5-5-5-5-5-5-5-5-|
E-----------1-1-1-1-1-1-1-1-3-3-3-3-3-3-3-3-3-|

  A    G# G
e-5-5-5-4-3-|
B-5-5-5-4-3-|
G-6-6-6-5-4-|
D-7-7-7-6-5-|
A-7-7-7-6-5-|
E-5-5-5-4-3-|

Bridge
   F                            C
e-8--8--8--8--8--8--8--8--8--8--8--8--8--8--8--8--8--8--|
B-10-10-10-10-10-10-10-10-10-8--9--9--9--9--9--9--9--9--|
G-10-10-10-10-10-10-10-10-10-9--9--9--9--9--9--9--9--9--|
D-10-10-10-10-10-10-10-10-10-10-10-10-10-10-10-10-10-10-|
A-8--8--8--8--8--8--8--8--8--10-10-10-10-10-10-10-10-10-|
E----------------------------8--8--8--8--8--8--8--8--8--|

   F                            C
e-8--8--8--8--8--8--8--8--8--8--8--8--8--8--8--8--8--8--|
B-10-10-10-10-10-10-10-10-10-8--9--9--9--9--9--9--9--9--|
G-10-10-10-10-10-10-10-10-10-9--9--9--9--9--9--9--9--9--|
D-10-10-10-10-10-10-10-10-10-10-10-10-10-10-10-10-10-10-|
A-8--8--8--8--8--8--8--8--8--10-10-10-10-10-10-10-10-10-|
E----------------------------8--8--8--8--8--8--8--8--8--|

   F                            C
e-8--8--8--8--8--8--8--8--8--8--8--8--8--8--8--8--8--8--|
B-10-10-10-10-10-10-10-10-10-8--9--9--9--9--9--9--9--9--|
G-10-10-10-10-10-10-10-10-10-9--9--9--9--9--9--9--9--9--|
D-10-10-10-10-10-10-10-10-10-10-10-10-10-10-10-10-10-10-|
A-8--8--8--8--8--8--8--8--8--10-10-10-10-10-10-10-10-10-|
E----------------------------8--8--8--8--8--8--8--8--8--|

   F                            C
e-8--8--8--8--8--8--8--8--8--8--8--8--8--8--8--8--8--8--|
B-10-10-10-10-10-10-10-10-10-8--9--9--9--9--9--9--9--9--|
G-10-10-10-10-10-10-10-10-10-9--9--9--9--9--9--9--9--9--|
D-10-10-10-10-10-10-10-10-10-10-10-10-10-10-10-10-10-10-|
A-8--8--8--8--8--8--8--8--8--10-10-10-10-10-10-10-10-10-|
E----------------------------8--8--8--8--8--8--8--8--8--|
   A
e-5-5-5-5-5-5-5-5-5-5-5-5-5-5-5-5-|
B-5-5-5-5-5-5-5-5-5-5-5-5-5-5-5-5-|
G-6-6-6-6-6-6-6-6-6-6-6-6-6-6-6-6-|
D-7-7-7-7-7-7-7-7-7-7-7-7-7-7-7-7-|
A-7-7-7-7-7-7-7-7-7-7-7-7-7-7-7-7-|
E-5-5-5-5-5-5-5-5-5-5-5-5-5-5-5-5-|

Chorus
  Dm         F              Gm
e-5-5-5-5-5-1-1-1-1-1-1-1-1-3-3-3-3-3-3-3-3-3-|
B-6-6-6-6-6-1-1-1-1-1-1-1-1-3-3-3-3-3-3-3-3-3-|
G-7-7-7-7-7-2-2-2-2-2-2-2-2-3-3-3-3-3-3-3-3-3-|
D-7-7-7-7-7-3-3-3-3-3-3-3-3-5-5-5-5-5-5-5-5-5-|
A-5-5-5-5-5-3-3-3-3-3-3-3-3-5-5-5-5-5-5-5-5-5-|
E-----------1-1-1-1-1-1-1-1-3-3-3-3-3-3-3-3-3-|

  A
e-5-5------------|
B-5-5--7-5-5-6-5-|
G-6-6--7-5-5-6-5-|
D-7-7------------|
A-7-7------------|
e-5-5------------|


Dm         F              Gm
e-5-5-5-5-5-1-1-1-1-1-1-1-1-3-3-3-3-3-3-3-3-3-|
B-6-6-6-6-6-1-1-1-1-1-1-1-1-3-3-3-3-3-3-3-3-3-|
G-7-7-7-7-7-2-2-2-2-2-2-2-2-3-3-3-3-3-3-3-3-3-|
D-7-7-7-7-7-3-3-3-3-3-3-3-3-5-5-5-5-5-5-5-5-5-|
A-5-5-5-5-5-3-3-3-3-3-3-3-3-5-5-5-5-5-5-5-5-5-|
E-----------1-1-1-1-1-1-1-1-3-3-3-3-3-3-3-3-3-|

        G# G
e-5-5-5-4-3-|
B-5-5-5-4-3-|
G-6-6-6-5-4-|
D-7-7-7-6-5-|
A-7-7-7-6-5-|
E-5-5-5-4-3-|

Post Chorus
   Dm            F           Dm            F
e-5--5--5--5--1--1--1--1--5--5--5--5--1--1--1--1-|
B-6--6--6--6--1--1--1--1--6--6--6--6--1--1--1--1-|
G-7--7--7--7--2--2--2--2--7--7--7--7--2--2--2--2-|
D-7--7--7--7--3--3--3--3--7--7--7--7--3--3--3--3-|
A-5--5--5--5--3--3--3--3--5--5--5--5--3--3--3--3-|

Outro
   A                             Dm
e-5-5-5-5-5-5-5-5-5-5-5-5-5-5-5-5-5-|
B-5-5-5-5-5-5-5-5-5-5-5-5-5-5-5-5-6-|
G-6-6-6-6-6-6-6-6-6-6-6-6-6-6-6-6-7-|
D-7-7-7-7-7-7-7-7-7-7-7-7-7-7-7-7-7-|
A-7-7-7-7-7-7-7-7-7-7-7-7-7-7-7-7-5-|
E-5-5-5-5-5-5-5-5-5-5-5-5-5-5-5-5---|

Anthony's Parts
Verse 1
   Dm                   F
e-5-xx-5-xx-5-5-5-5-5-1-xx-1-xx-1-1-1-1-1-|
B-6-xx-6-xx-5-5-5-5-5-1-xx-1-xx-1-1-1-1-1-|
G-7-xx-7-xx-6-6-6-6-6-2-xx-2-xx-2-2-2-2-2-|
D-7-xx-7-xx-7-7-7-7-7-3-xx-3-xx-3-3-3-3-3-|
A-5-xx-5-xx-7-7-7-7-7-3-xx-3-xx-3-3-3-3-3-|
E---xx---xx-5-5-5-5-5-1-xx-1-xx-1-1-1-1-1-|

                         Ending one
    Gm                    A  A# A
e-3-xx-3-xx-3-3-3-3-3-  -5-5-6--5-5-5-5-|
B-3-xx-3-xx-3-3-3-3-3-  -5-5-6--5-5-5-5-|
G-3-xx-3-xx-3-3-3-3-3-  -6-6-7--6-6-6-6-|
D-5-xx-5-xx-5-5-5-5-5-  -7-7-8--7-7-7-7-|
A-5-xx-5-xx-5-5-5-5-5-  -7-7-8--7-7-7-7-|
E-3-xx-3-xx-3-3-3-3-3-  -5-5-6--5-5-5-5-|

   Dm                   F
e-5-xx-5-xx-5-5-5-5-5-1-xx-1-xx-1-1-1-1-1-|
B-6-xx-6-xx-5-5-5-5-5-1-xx-1-xx-1-1-1-1-1-|
G-7-xx-7-xx-6-6-6-6-6-2-xx-2-xx-2-2-2-2-2-|
D-7-xx-7-xx-7-7-7-7-7-3-xx-3-xx-3-3-3-3-3-|
A-5-xx-5-xx-7-7-7-7-7-3-xx-3-xx-3-3-3-3-3-|
E---xx---xx-5-5-5-5-5-1-xx-1-xx-1-1-1-1-1-|

  A         G# G
e-5-5-5-5-5-4--3-|
B-5-5-5-5-5-4--3-|
G-6-6-6-6-6-5--4-|
D-7-7-7-7-7-6--5-|
A-7-7-7-7-7-6--5-|
E-5-5-5-5-5-4--3-|

Chorus
  Dm         F              Gm
e-5-5-5-5-5-1-1-1-1-1-1-1-1-3-3-3-3-3-3-3-3-3-|
B-6-6-6-6-6-1-1-1-1-1-1-1-1-3-3-3-3-3-3-3-3-3-|
G-7-7-7-7-7-2-2-2-2-2-2-2-2-3-3-3-3-3-3-3-3-3-|
D-7-7-7-7-7-3-3-3-3-3-3-3-3-5-5-5-5-5-5-5-5-5-|
A-5-5-5-5-5-3-3-3-3-3-3-3-3-5-5-5-5-5-5-5-5-5-|
E-----------1-1-1-1-1-1-1-1-3-3-3-3-3-3-3-3-3-|

  A
e-5-5-5-5-5-5-5-5-|
B-5-5-5-5-5-5-5-5-|
G-6-6-6-6-6-6-6-6-|
D-7-7-7-7-7-7-7-7-|
A-7-7-7-7-7-7-7-7-|
e-5-5-5-5-5-5-5-5-|


Dm         F              Gm
e-5-5-5-5-5-1-1-1-1-1-1-1-1-3-3-3-3-3-3-3-3-3-|
B-6-6-6-6-6-1-1-1-1-1-1-1-1-3-3-3-3-3-3-3-3-3-|
G-7-7-7-7-7-2-2-2-2-2-2-2-2-3-3-3-3-3-3-3-3-3-|
D-7-7-7-7-7-3-3-3-3-3-3-3-3-5-5-5-5-5-5-5-5-5-|
A-5-5-5-5-5-3-3-3-3-3-3-3-3-5-5-5-5-5-5-5-5-5-|
E-----------1-1-1-1-1-1-1-1-3-3-3-3-3-3-3-3-3-|

        G# G
e-5-5-5-4-3-|
B-5-5-5-4-3-|
G-6-6-6-5-4-|
D-7-7-7-6-5-|
A-7-7-7-6-5-|
E-5-5-5-4-3-|

Post Chorus
e---------------------------------------------|
B---------------------------------------------|
G---------------------------------------------|
D-0-2/14-13/14-13/14-14\0-2/14-13/14-13/14-14-|
A-0-0/12-11/12-11/12-12\0-3/15-14/15-14/15-15-|
E---------------------------------------------|

e---------------------------------------------|
B---------------------------------------------|
G---------------------------------------------|
D-0-2/14-13/14-13/14-14\0-2/14-13/14-13/14-14-|
A-0-0/12-11/12-11/12-12\0-3/15-14/15-14/15-15-|
E---------------------------------------------|

Verse 2
 Dm F Gm              A  A#  A
e-5-1--3-3-3-3-3-3-5-5-5-6-5-5-5-|
B-6-1--3-3-3-3-3-3-5-5-6-5-5-5-5-|
G-7-2--3-3-3-3-3-3-6-6-7-6-6-6-6-|
D-7-3--5-5-5-5-5-5-7-7-8-7-7-7-7-|
A-5-3--5-5-5-5-5-5-7-7-8-7-7-7-7-|
E---1--3-3-3-3-3-3-5-5-6-5-5-5-5-|

 Dm                   F
e-5-xx-5-xx-5-5-5-5-5-1-xx-1-xx-1-1-1-1-1-|
B-6-xx-6-xx-5-5-5-5-5-1-xx-1-xx-1-1-1-1-1-|
G-7-xx-7-xx-6-6-6-6-6-2-xx-2-xx-2-2-2-2-2-|
D-7-xx-7-xx-7-7-7-7-7-3-xx-3-xx-3-3-3-3-3-|
A-5-xx-5-xx-7-7-7-7-7-3-xx-3-xx-3-3-3-3-3-|
E---xx---xx-5-5-5-5-5-1-xx-1-xx-1-1-1-1-1-|

  A         G# G
e-5-5-5-5-5-4--3-|
B-5-5-5-5-5-4--3-|
G-6-6-6-6-6-5--4-|
D-7-7-7-7-7-6--5-|
A-7-7-7-7-7-6--5-|
E-5-5-5-5-5-4--3-|

Bridge
   F                            C
e-8--8--8--8--8--8--8--8--8--8--8--8--8--8--8--8--8--8--|
B-10-10-10-10-10-10-10-10-10-8--9--9--9--9--9--9--9--9--|
G-10-10-10-10-10-10-10-10-10-9--9--9--9--9--9--9--9--9--|
D-10-10-10-10-10-10-10-10-10-10-10-10-10-10-10-10-10-10-|
A-8--8--8--8--8--8--8--8--8--10-10-10-10-10-10-10-10-10-|
E----------------------------8--8--8--8--8--8--8--8--8--|

   F                            C
e-8--8--8--8--8--8--8--8--8--8--8--8--8--8--8--8--8--8--|
B-10-10-10-10-10-10-10-10-10-8--9--9--9--9--9--9--9--9--|
G-10-10-10-10-10-10-10-10-10-9--9--9--9--9--9--9--9--9--|
D-10-10-10-10-10-10-10-10-10-10-10-10-10-10-10-10-10-10-|
A-8--8--8--8--8--8--8--8--8--10-10-10-10-10-10-10-10-10-|
E----------------------------8--8--8--8--8--8--8--8--8--|

   F                            C
e-8--8--8--8--8--8--8--8--8--8--8--8--8--8--8--8--8--8--|
B-10-10-10-10-10-10-10-10-10-8--9--9--9--9--9--9--9--9--|
G-10-10-10-10-10-10-10-10-10-9--9--9--9--9--9--9--9--9--|
D-10-10-10-10-10-10-10-10-10-10-10-10-10-10-10-10-10-10-|
A-8--8--8--8--8--8--8--8--8--10-10-10-10-10-10-10-10-10-|
E----------------------------8--8--8--8--8--8--8--8--8--|

   F                            C
e-8--8--8--8--8--8--8--8--8--8--8--8--8--8--8--8--8--8--|
B-10-10-10-10-10-10-10-10-10-8--9--9--9--9--9--9--9--9--|
G-10-10-10-10-10-10-10-10-10-9--9--9--9--9--9--9--9--9--|
D-10-10-10-10-10-10-10-10-10-10-10-10-10-10-10-10-10-10-|
A-8--8--8--8--8--8--8--8--8--10-10-10-10-10-10-10-10-10-|
E----------------------------8--8--8--8--8--8--8--8--8--|
   A
e-5-5-5-5-5-5-5-5-5-5-5-5-5-5-5-5-|
B-5-5-5-5-5-5-5-5-5-5-5-5-5-5-5-5-|
G-6-6-6-6-6-6-6-6-6-6-6-6-6-6-6-6-|
D-7-7-7-7-7-7-7-7-7-7-7-7-7-7-7-7-|
A-7-7-7-7-7-7-7-7-7-7-7-7-7-7-7-7-|
E-5-5-5-5-5-5-5-5-5-5-5-5-5-5-5-5-|

Chorus
  Dm         F              Gm
e-5-5-5-5-5-1-1-1-1-1-1-1-1-3-3-3-3-3-3-3-3-3-|
B-6-6-6-6-6-1-1-1-1-1-1-1-1-3-3-3-3-3-3-3-3-3-|
G-7-7-7-7-7-2-2-2-2-2-2-2-2-3-3-3-3-3-3-3-3-3-|
D-7-7-7-7-7-3-3-3-3-3-3-3-3-5-5-5-5-5-5-5-5-5-|
A-5-5-5-5-5-3-3-3-3-3-3-3-3-5-5-5-5-5-5-5-5-5-|
E-----------1-1-1-1-1-1-1-1-3-3-3-3-3-3-3-3-3-|

  A
e-5-5-5-5-5-5-5-5-|
B-5-5-5-5-5-5-5-5-|
G-6-6-6-6-6-6-6-6-|
D-7-7-7-7-7-7-7-7-|
A-7-7-7-7-7-7-7-7-|
e-5-5-5-5-5-5-5-5-|


Dm         F              Gm
e-5-5-5-5-5-1-1-1-1-1-1-1-1-3-3-3-3-3-3-3-3-3-|
B-6-6-6-6-6-1-1-1-1-1-1-1-1-3-3-3-3-3-3-3-3-3-|
G-7-7-7-7-7-2-2-2-2-2-2-2-2-3-3-3-3-3-3-3-3-3-|
D-7-7-7-7-7-3-3-3-3-3-3-3-3-5-5-5-5-5-5-5-5-5-|
A-5-5-5-5-5-3-3-3-3-3-3-3-3-5-5-5-5-5-5-5-5-5-|
E-----------1-1-1-1-1-1-1-1-3-3-3-3-3-3-3-3-3-|

        G# G
e-5-5-5-4-3-|
B-5-5-5-4-3-|
G-6-6-6-5-4-|
D-7-7-7-6-5-|
A-7-7-7-6-5-|
E-5-5-5-4-3-|

Post Chorus
e---------------------------------------------|
B---------------------------------------------|
G---------------------------------------------|
D-0-2/14-13/14-13/14-14\0-2/14-13/14-13/14-14-|
A-0-0/12-11/12-11/12-12\0-3/15-14/15-14/15-15-|
E---------------------------------------------|

e---------------------------------------------|
B---------------------------------------------|
G---------------------------------------------|
D-0-2/14-13/14-13/14-14\0-2/14-13/14-13/14-14-|
A-0-0/12-11/12-11/12-12\0-3/15-14/15-14/15-15-|
E---------------------------------------------|

Outro
   A
e-5-5-5-5-5-5-5-5-5-5-5-5-5-5-5-5-5-|
B-5-5-5-5-5-5-5-5-5-5-5-5-5-5-5-5-6-|
G-6-6-6-6-6-6-6-6-6-6-6-6-6-6-6-6-7-|
D-7-7-7-7-7-7-7-7-7-7-7-7-7-7-7-7-7-|
A-7-7-7-7-7-7-7-7-7-7-7-7-7-7-7-7-5-|
E-5-5-5-5-5-5-5-5-5-5-5-5-5-5-5-5---|

You got the world boy

This all you make it?
You had the choice lad
You wouldnt take it
The oldest charm

Only the best for you

And the years of my life,
Some they were so good,
But now and again I feel
I was a coward
Are the holes in my soul
In tatters for all these tears
Well you dont see it that way

A way, a way

Weílll have it today

The dancing ones they really mean it

But something boy,
somethings gonna change

A way, a way

Youve got it they say
How do they know
When theyve never seen it?

And what will you do
When they forget your name?

Well youíll up and get another one

Donít give me that face
I know when I should live in disgrace
Not dig up the deadwood
I knew this place was never the place for me

And of the years that rolled by
Yeah some were so good
But now I know that
You were the coward
The holes in your soul
In tatters for all these years

But you cant see it that way

A way, a way

Well have it today
The dancing ones they really mean it
And mark my words
Somethingís gonna change

somethings gonna change

A way, a way
Youve got it today
But how do they know
When theyve never seen it?
And what will you do
When they forget your name?

Well youíll up and get another one

A way, a way

Well have it today
The dancing ones they really mean it
And mark my words
Somethingís gonna change

somethings gonna change

A way, a way
Youve got it today
But how do they know
When theyve never seen it?
And what will you do
When they forget your name?

Well youíll up and get another one


Pretty sure I got this tune right any corrections PM me.

Doctors and Dealers

Carl's Parts

Intro
e-5-7-8-7-5-7/10-8-10-7-|
B-5-----8-----10------8-|
G-5-----7------7------7-|
D-7---------------------|
A-----------------------|
E-----------------------|
                    1/2 point
e-6-6-6-6-6-6-6-6-6-8-8-8-8-8-8-8-8-8-|
B-6-6-6-6-6-6-6-6-6-6-6-6-6-6-6-6-6-6-|
G-7-7-7-7-7-7-7-7-7-7-7-7-7-7-7-7-7-7-|
D-------------------------------------|
A-------------------------------------|
E-------------------------------------|

e-5-5-5-5-5-5-5-5-5-6-6-6-6-6-6-6-6-6-|
B-6-6-6-6-6-6-6-6-6-6-6-6-6-6-6-6-6-6-|
G-5-5-5-5-5-5-5-5-5-7-7-7-7-7-7-7-7-7-|
D-7-7-7-7-7-7-7-7-7-8-8-8-8-8-8-8-8-8-|
A-------------------------------------|
E-------------------------------------|

Verse 1
  F                   Dm
e-1-1-1-1-1-1-1-1-1-1-5-5-5-5-5-5-5-5-5-5-|
B-1-1-1-1-1-1-1-1-1-1-6-6-6-6-6-6-6-6-6-6-|
G-2-2-2-2-2-2-2-2-2-2-7-7-7-7-7-7-7-7-7-7-|
D-3-3-3-3-3-3-3-3-3-3-7-7-7-7-7-7-7-7-7-7-|
A-3-3-3-3-3-3-3-3-3-3-5-5-5-5-5-5-5-5-5-5-|
E-1-1-1-1-1-1-1-1-1-1---------------------|
   A#                   Gm
e-6-6-6-6-6-6-6-6-6-6-3-3-3-3-3-3-3-3-3-3-|
B-6-6-6-6-6-6-6-6-6-6-3-3-3-3-3-3-3-3-3-3-|
G-7-7-7-7-7-7-7-7-7-7-3-3-3-3-3-3-3-3-3-3-|
D-8-8-8-8-8-8-8-8-8-8-5-5-5-5-5-5-5-5-5-5-|
A-8-8-8-8-8-8-8-8-8-8-5-5-5-5-5-5-5-5-5-5-|
E-6-6-6-6-6-6-6-6-6-6-3-3-3-3-3-3-3-3-3-3-|
Verse 1
  F                   Dm
e-1-1-1-1-1-1-1-1-1-1-5-5-5-5-5-5-5-5-5-5-|
B-1-1-1-1-1-1-1-1-1-1-6-6-6-6-6-6-6-6-6-6-|
G-2-2-2-2-2-2-2-2-2-2-7-7-7-7-7-7-7-7-7-7-|
D-3-3-3-3-3-3-3-3-3-3-7-7-7-7-7-7-7-7-7-7-|
A-3-3-3-3-3-3-3-3-3-3-5-5-5-5-5-5-5-5-5-5-|
E-1-1-1-1-1-1-1-1-1-1---------------------|
   A#                   Gm
e-6-6-6-6-6-6-6-6-6-6-3-3-3-3-3-3-3-3-3-3-|
B-6-6-6-6-6-6-6-6-6-6-3-3-3-3-3-3-3-3-3-3-|
G-7-7-7-7-7-7-7-7-7-7-3-3-3-3-3-3-3-3-3-3-|
D-8-8-8-8-8-8-8-8-8-8-5-5-5-5-5-5-5-5-5-5-|
A-8-8-8-8-8-8-8-8-8-8-5-5-5-5-5-5-5-5-5-5-|
E-6-6-6-6-6-6-6-6-6-6-3-3-3-3-3-3-3-3-3-3-|

Bridge 1
 Dm    A#    Dm       Gm
e-5-----6-----5------3-3-3-3-3-3-3-3-|
B-6-----6-----6------3-3-3-3-3-3-3-3-|
G-7-----7-----7------3-3-3-3-3-3-3-3-|
D-7-----8-----7------5-5-5-5-5-5-5-5-|
A-5-----8-----5------5-5-5-5-5-5-5-5-|
E-------6------------3-3-3-3-3-3-3-3-|

Chorus
  F   A          A#
e-1-1-5-5-5-5-/6-6-6-6-6-6-6-6-6-6-6-6-6-6-6-6-6-6-|
B-1-1-5-5-5-5-/6-6-6-6-6-6-6-6-6-6-6-6-6-6-6-6-6-6-|
G-2-2-6-6-6-6-/7-7-7-7-7-7-7-7-7-7-7-7-7-7-7-7-7-7-|
D-3-3-7-7-7-7-/8-8-8-8-8-8-8-8-8-8-8-8-8-8-8-8-8-8-|
A-3-3-7-7-7-7-/8-8-8-8-8-8-8-8-8-8-8-8-8-8-8-8-8-8-|
E-1-1-5-5-5-5-/6-6-6-6-6-6-6-6-6-6-6-6-6-6-6-6-6-6-|

  F   A          A#
e-1-1-5-5-5-5-/6-6-6-6-6-6-6-6-6-6-6-6-6-6-6-6-6-6-|
B-1-1-5-5-5-5-/6-6-6-6-6-6-6-6-6-6-6-6-6-6-6-6-6-6-|
G-2-2-6-6-6-6-/7-7-7-7-7-7-7-7-7-7-7-7-7-7-7-7-7-7-|
D-3-3-7-7-7-7-/8-8-8-8-8-8-8-8-8-8-8-8-8-8-8-8-8-8-|
A-3-3-7-7-7-7-/8-8-8-8-8-8-8-8-8-8-8-8-8-8-8-8-8-8-|
E-1-1-5-5-5-5-/6-6-6-6-6-6-6-6-6-6-6-6-6-6-6-6-6-6-|

  F   A          A#
e-1-1-5-5-5-5-/6-6-6-6-6-6-6-6-6-6-6-6-6-6-6-6-6-6-|
B-1-1-5-5-5-5-/6-6-6-6-6-6-6-6-6-6-6-6-6-6-6-6-6-6-|
G-2-2-6-6-6-6-/7-7-7-7-7-7-7-7-7-7-7-7-7-7-7-7-7-7-|
D-3-3-7-7-7-7-/8-8-8-8-8-8-8-8-8-8-8-8-8-8-8-8-8-8-|
A-3-3-7-7-7-7-/8-8-8-8-8-8-8-8-8-8-8-8-8-8-8-8-8-8-|
E-1-1-5-5-5-5-/6-6-6-6-6-6-6-6-6-6-6-6-6-6-6-6-6-6-|

  F   A          A#
e-1-1-5-5-5-5-/6-6-6-6-6-6-6-6-6-6-6-6-6-6-6-6-6-6-|
B-1-1-5-5-5-5-/6-6-6-6-6-6-6-6-6-6-6-6-6-6-6-6-6-6-|
G-2-2-6-6-6-6-/7-7-7-7-7-7-7-7-7-7-7-7-7-7-7-7-7-7-|
D-3-3-7-7-7-7-/8-8-8-8-8-8-8-8-8-8-8-8-8-8-8-8-8-8-|
A-3-3-7-7-7-7-/8-8-8-8-8-8-8-8-8-8-8-8-8-8-8-8-8-8-|
E-1-1-5-5-5-5-/6-6-6-6-6-6-6-6-6-6-6-6-6-6-6-6-6-6-|

Bridge 2
  A
e-5-5-5-5-5-5-5-5-5-5-5-5-5-5-5-5-5-5-|
B-5-5-5-5-5-5-5-5-5-5-5-5-5-5-5-5-5-5-|
G-6-6-6-6-6-6-6-6-6-6-6-6-6-6-6-6-6-6-|
D-7-7-7-7-7-7-7-7-7-7-7-7-7-7-7-7-7-7-|
A-7-7-7-7-7-7-7-7-7-7-7-7-7-7-7-7-7-7-|
E-5-5-5-5-5-5-5-5-5-5-5-5-5-5-5-5-5-5-|

Verse 2
  F                   Dm
e-1-1-1-1-1-1-1-1-1-1-5-5-5-5-5-5-5-5-5-5-|
B-1-1-1-1-1-1-1-1-1-1-6-6-6-6-6-6-6-6-6-6-|
G-2-2-2-2-2-2-2-2-2-2-7-7-7-7-7-7-7-7-7-7-|
D-3-3-3-3-3-3-3-3-3-3-7-7-7-7-7-7-7-7-7-7-|
A-3-3-3-3-3-3-3-3-3-3-5-5-5-5-5-5-5-5-5-5-|
E-1-1-1-1-1-1-1-1-1-1---------------------|
   A#                   Gm
e-6-6-6-6-6-6-6-6-6-6-3-3-3-3-3-3-3-3-3-3-|
B-6-6-6-6-6-6-6-6-6-6-3-3-3-3-3-3-3-3-3-3-|
G-7-7-7-7-7-7-7-7-7-7-3-3-3-3-3-3-3-3-3-3-|
D-8-8-8-8-8-8-8-8-8-8-5-5-5-5-5-5-5-5-5-5-|
A-8-8-8-8-8-8-8-8-8-8-5-5-5-5-5-5-5-5-5-5-|
E-6-6-6-6-6-6-6-6-6-6-3-3-3-3-3-3-3-3-3-3-|

  F                   Dm
e-1-1-1-1-1-1-1-1-1-1-5-5-5-5-5-5-5-5-5-5-|
B-1-1-1-1-1-1-1-1-1-1-6-6-6-6-6-6-6-6-6-6-|
G-2-2-2-2-2-2-2-2-2-2-7-7-7-7-7-7-7-7-7-7-|
D-3-3-3-3-3-3-3-3-3-3-7-7-7-7-7-7-7-7-7-7-|
A-3-3-3-3-3-3-3-3-3-3-5-5-5-5-5-5-5-5-5-5-|
E-1-1-1-1-1-1-1-1-1-1---------------------|
   A#                   Gm
e-6-6-6-6-6-6-6-6-6-6-3-3-3-3-3-3-3-3-3-3-|
B-6-6-6-6-6-6-6-6-6-6-3-3-3-3-3-3-3-3-3-3-|
G-7-7-7-7-7-7-7-7-7-7-3-3-3-3-3-3-3-3-3-3-|
D-8-8-8-8-8-8-8-8-8-8-5-5-5-5-5-5-5-5-5-5-|
A-8-8-8-8-8-8-8-8-8-8-5-5-5-5-5-5-5-5-5-5-|
E-6-6-6-6-6-6-6-6-6-6-3-3-3-3-3-3-3-3-3-3-|

Bridge 1
 Dm    A#    Dm       Gm
e-5-----6-----5------3-3-3-3-3-3-3-3-|
B-6-----6-----6------3-3-3-3-3-3-3-3-|
G-7-----7-----7------3-3-3-3-3-3-3-3-|
D-7-----8-----7------5-5-5-5-5-5-5-5-|
A-5-----8-----5------5-5-5-5-5-5-5-5-|
E-------6------------3-3-3-3-3-3-3-3-|

Chorus
  F   A          A#
e-1-1-5-5-5-5-/6-6-6-6-6-6-6-6-6-6-6-6-6-6-6-6-6-6-|
B-1-1-5-5-5-5-/6-6-6-6-6-6-6-6-6-6-6-6-6-6-6-6-6-6-|
G-2-2-6-6-6-6-/7-7-7-7-7-7-7-7-7-7-7-7-7-7-7-7-7-7-|
D-3-3-7-7-7-7-/8-8-8-8-8-8-8-8-8-8-8-8-8-8-8-8-8-8-|
A-3-3-7-7-7-7-/8-8-8-8-8-8-8-8-8-8-8-8-8-8-8-8-8-8-|
E-1-1-5-5-5-5-/6-6-6-6-6-6-6-6-6-6-6-6-6-6-6-6-6-6-|

  F   A          A#
e-1-1-5-5-5-5-/6-6-6-6-6-6-6-6-6-6-6-6-6-6-6-6-6-6-|
B-1-1-5-5-5-5-/6-6-6-6-6-6-6-6-6-6-6-6-6-6-6-6-6-6-|
G-2-2-6-6-6-6-/7-7-7-7-7-7-7-7-7-7-7-7-7-7-7-7-7-7-|
D-3-3-7-7-7-7-/8-8-8-8-8-8-8-8-8-8-8-8-8-8-8-8-8-8-|
A-3-3-7-7-7-7-/8-8-8-8-8-8-8-8-8-8-8-8-8-8-8-8-8-8-|
E-1-1-5-5-5-5-/6-6-6-6-6-6-6-6-6-6-6-6-6-6-6-6-6-6-|

  F   A          A#
e-1-1-5-5-5-5-/6-6-6-6-6-6-6-6-6-6-6-6-6-6-6-6-6-6-|
B-1-1-5-5-5-5-/6-6-6-6-6-6-6-6-6-6-6-6-6-6-6-6-6-6-|
G-2-2-6-6-6-6-/7-7-7-7-7-7-7-7-7-7-7-7-7-7-7-7-7-7-|
D-3-3-7-7-7-7-/8-8-8-8-8-8-8-8-8-8-8-8-8-8-8-8-8-8-|
A-3-3-7-7-7-7-/8-8-8-8-8-8-8-8-8-8-8-8-8-8-8-8-8-8-|
E-1-1-5-5-5-5-/6-6-6-6-6-6-6-6-6-6-6-6-6-6-6-6-6-6-|

  F   A          A#
e-1-1-5-5-5-5-/6-6-6-6-6-6-6-6-6-6-6-6-6-6-6-6-6-6-|
B-1-1-5-5-5-5-/6-6-6-6-6-6-6-6-6-6-6-6-6-6-6-6-6-6-|
G-2-2-6-6-6-6-/7-7-7-7-7-7-7-7-7-7-7-7-7-7-7-7-7-7-|
D-3-3-7-7-7-7-/8-8-8-8-8-8-8-8-8-8-8-8-8-8-8-8-8-8-|
A-3-3-7-7-7-7-/8-8-8-8-8-8-8-8-8-8-8-8-8-8-8-8-8-8-|
E-1-1-5-5-5-5-/6-6-6-6-6-6-6-6-6-6-6-6-6-6-6-6-6-6-|

Break
Same as Anthony for this riff

e-10-8-7-----|
B--------8-8-|
G------------|
D------------|
A------------|
E------------|

Bridge 3
  A#
e-6-6-6-6-6-6-6-6-3-3-3-3-3-3-3-3-6-6-6-6-6-6-6-6-6-6-|
B-6-6-6-6-6-6-6-6-3-3-3-3-3-3-3-3-6-6-6-6-6-6-6-6-6-6-|
G-7-7-7-7-7-7-7-7-4-4-4-4-4-4-4-4-7-7-7-7-7-7-7-7-7-7-|
D-8-8-8-8-8-8-8-8-5-5-5-5-5-5-5-5-8-8-8-8-8-8-8-8-8-8-|
A-8-8-8-8-8-8-8-8-5-5-5-5-5-5-5-5-8-8-8-8-8-8-8-8-8-8-|
E-6-6-6-6-6-6-6-6-3-3-3-3-3-3-3-3-6-6-6-6-6-6-6-6-6-6-|

Chorus
  F   A          A#
e-1-1-5-5-5-5-/6-6-6-6-6-6-6-6-6-6-6-6-6-6-6-6-6-6-|
B-1-1-5-5-5-5-/6-6-6-6-6-6-6-6-6-6-6-6-6-6-6-6-6-6-|
G-2-2-6-6-6-6-/7-7-7-7-7-7-7-7-7-7-7-7-7-7-7-7-7-7-|
D-3-3-7-7-7-7-/8-8-8-8-8-8-8-8-8-8-8-8-8-8-8-8-8-8-|
A-3-3-7-7-7-7-/8-8-8-8-8-8-8-8-8-8-8-8-8-8-8-8-8-8-|
E-1-1-5-5-5-5-/6-6-6-6-6-6-6-6-6-6-6-6-6-6-6-6-6-6-|

  F   A          A#
e-1-1-5-5-5-5-/6-6-6-6-6-6-6-6-6-6-6-6-6-6-6-6-6-6-|
B-1-1-5-5-5-5-/6-6-6-6-6-6-6-6-6-6-6-6-6-6-6-6-6-6-|
G-2-2-6-6-6-6-/7-7-7-7-7-7-7-7-7-7-7-7-7-7-7-7-7-7-|
D-3-3-7-7-7-7-/8-8-8-8-8-8-8-8-8-8-8-8-8-8-8-8-8-8-|
A-3-3-7-7-7-7-/8-8-8-8-8-8-8-8-8-8-8-8-8-8-8-8-8-8-|
E-1-1-5-5-5-5-/6-6-6-6-6-6-6-6-6-6-6-6-6-6-6-6-6-6-|

  F   A          A#
e-1-1-5-5-5-5-/6-6-6-6-6-6-6-6-6-6-6-6-6-6-6-6-6-6-|
B-1-1-5-5-5-5-/6-6-6-6-6-6-6-6-6-6-6-6-6-6-6-6-6-6-|
G-2-2-6-6-6-6-/7-7-7-7-7-7-7-7-7-7-7-7-7-7-7-7-7-7-|
D-3-3-7-7-7-7-/8-8-8-8-8-8-8-8-8-8-8-8-8-8-8-8-8-8-|
A-3-3-7-7-7-7-/8-8-8-8-8-8-8-8-8-8-8-8-8-8-8-8-8-8-|
E-1-1-5-5-5-5-/6-6-6-6-6-6-6-6-6-6-6-6-6-6-6-6-6-6-|

  F   A          A#
e-1-1-5-5-5-5-/6-6-6-6-6-6-6-6-6-6-6-6-6-6-6-6-6-6-|
B-1-1-5-5-5-5-/6-6-6-6-6-6-6-6-6-6-6-6-6-6-6-6-6-6-|
G-2-2-6-6-6-6-/7-7-7-7-7-7-7-7-7-7-7-7-7-7-7-7-7-7-|
D-3-3-7-7-7-7-/8-8-8-8-8-8-8-8-8-8-8-8-8-8-8-8-8-8-|
A-3-3-7-7-7-7-/8-8-8-8-8-8-8-8-8-8-8-8-8-8-8-8-8-8-|
E-1-1-5-5-5-5-/6-6-6-6-6-6-6-6-6-6-6-6-6-6-6-6-6-6-|

Outro

e---------------------|
B------8-10-10-8------|
G-7-10-----------10-7-|
D---------------------| X18  too lazy to tab it all out sheesh
A---------------------|
E---------------------|


Anthony's Parts


Intro
comes in at Intro 1/2
e-x-x-x-x-x-x-x-x-x-x-x-x-x-x-x-x-|
B-x-x-x-x-x-x-x-x-x-x-x-x-x-x-x-x-|
G-x-x-x-x-x-x-x-x-x-x-x-x-x-x-x-x-|
D-x-x-x-x-x-x-x-x-x-x-x-x-x-x-x-x-|
A-x-x-x-x-x-x-x-x-x-x-x-x-x-x-x-x-|
E-x-x-x-x-x-x-x-x-x-x-x-x-x-x-x-x-|

e-5-5-5-5-5-5-5-5-5-6-6-6-6-6-6-6-6-6-|
B-6-6-6-6-6-6-6-6-6-6-6-6-6-6-6-6-6-6-|
G-5-5-5-5-5-5-5-5-5-7-7-7-7-7-7-7-7-7-|
D-7-7-7-7-7-7-7-7-7-8-8-8-8-8-8-8-8-8-|
A-------------------------------------|
E-------------------------------------|

Verse 1

  F                   Dm
e-1-1-1-1-1-1-1-1-1-1-5-5-5-5-5-5-5-5-5-5-|
B-1-1-1-1-1-1-1-1-1-1-6-6-6-6-6-6-6-6-6-6-|
G-2-2-2-2-2-2-2-2-2-2-7-7-7-7-7-7-7-7-7-7-|
D-3-3-3-3-3-3-3-3-3-3-7-7-7-7-7-7-7-7-7-7-|
A-3-3-3-3-3-3-3-3-3-3-5-5-5-5-5-5-5-5-5-5-|
E-1-1-1-1-1-1-1-1-1-1---------------------|
   A#                   Gm
e-6-6-6-6-6-6-6-6-6-6-3-3-3-3-3-3-3-3-3-3-|
B-6-6-6-6-6-6-6-6-6-6-3-3-3-3-3-3-3-3-3-3-|
G-7-7-7-7-7-7-7-7-7-7-3-3-3-3-3-3-3-3-3-3-|
D-8-8-8-8-8-8-8-8-8-8-5-5-5-5-5-5-5-5-5-5-|
A-8-8-8-8-8-8-8-8-8-8-5-5-5-5-5-5-5-5-5-5-|
E-6-6-6-6-6-6-6-6-6-6-3-3-3-3-3-3-3-3-3-3-|
Verse 1
  F                   Dm
e-1-1-1-1-1-1-1-1-1-1-5-5-5-5-5-5-5-5-5-5-|
B-1-1-1-1-1-1-1-1-1-1-6-6-6-6-6-6-6-6-6-6-|
G-2-2-2-2-2-2-2-2-2-2-7-7-7-7-7-7-7-7-7-7-|
D-3-3-3-3-3-3-3-3-3-3-7-7-7-7-7-7-7-7-7-7-|
A-3-3-3-3-3-3-3-3-3-3-5-5-5-5-5-5-5-5-5-5-|
E-1-1-1-1-1-1-1-1-1-1---------------------|
   A#                   Gm
e-6-6-6-6-6-6-6-6-6-6-3-3-3-3-3-3-3-3-3-3-|
B-6-6-6-6-6-6-6-6-6-6-3-3-3-3-3-3-3-3-3-3-|
G-7-7-7-7-7-7-7-7-7-7-3-3-3-3-3-3-3-3-3-3-|
D-8-8-8-8-8-8-8-8-8-8-5-5-5-5-5-5-5-5-5-5-|
A-8-8-8-8-8-8-8-8-8-8-5-5-5-5-5-5-5-5-5-5-|
E-6-6-6-6-6-6-6-6-6-6-3-3-3-3-3-3-3-3-3-3-|

Bridge 1
 Dm    A#    Dm       Gm
e-5-----6-----5------3-3-3-3-3-3-3-3-|
B-6-----6-----6------3-3-3-3-3-3-3-3-|
G-7-----7-----7------3-3-3-3-3-3-3-3-|
D-7-----8-----7------5-5-5-5-5-5-5-5-|
A-5-----8-----5------5-5-5-5-5-5-5-5-|
E-------6------------3-3-3-3-3-3-3-3-|

Chorus

e-5-6-8-6-5h6p5-----    -5-6-8-6-5h6p5------------------------|
B---------------6---    ---------------6-------6--8b-8b-8b-8b-|
G-----------------7-    -----------------7-5/7----------------|
D------------------- X3 --------------------------------------|
A-------------------    --------------------------------------|
E-------------------    --------------------------------------|

Bridge 2
  A
e-5-5-5-5-5-5-5-5-5-5-5-5-5-5-5-5-5-5-|
B-5-5-5-5-5-5-5-5-5-5-5-5-5-5-5-5-5-5-|
G-6-6-6-6-6-6-6-6-6-6-6-6-6-6-6-6-6-6-|
D-7-7-7-7-7-7-7-7-7-7-7-7-7-7-7-7-7-7-|
A-7-7-7-7-7-7-7-7-7-7-7-7-7-7-7-7-7-7-|
E-5-5-5-5-5-5-5-5-5-5-5-5-5-5-5-5-5-5-|

Verse 2
  F                   Dm
e-1-1-1-1-1-1-1-1-1-1-5-5-5-5-5-5-5-5-5-5-|
B-1-1-1-1-1-1-1-1-1-1-6-6-6-6-6-6-6-6-6-6-|
G-2-2-2-2-2-2-2-2-2-2-7-7-7-7-7-7-7-7-7-7-|
D-3-3-3-3-3-3-3-3-3-3-7-7-7-7-7-7-7-7-7-7-|
A-3-3-3-3-3-3-3-3-3-3-5-5-5-5-5-5-5-5-5-5-|
E-1-1-1-1-1-1-1-1-1-1---------------------|
   A#                   Gm
e-6-6-6-6-6-6-6-6-6-6-3-3-3-3-3-3-3-3-3-3-|
B-6-6-6-6-6-6-6-6-6-6-3-3-3-3-3-3-3-3-3-3-|
G-7-7-7-7-7-7-7-7-7-7-3-3-3-3-3-3-3-3-3-3-|
D-8-8-8-8-8-8-8-8-8-8-5-5-5-5-5-5-5-5-5-5-|
A-8-8-8-8-8-8-8-8-8-8-5-5-5-5-5-5-5-5-5-5-|
E-6-6-6-6-6-6-6-6-6-6-3-3-3-3-3-3-3-3-3-3-|
Verse 1
  F                   Dm
e-1-1-1-1-1-1-1-1-1-1-5-5-5-5-5-5-5-5-5-5-|
B-1-1-1-1-1-1-1-1-1-1-6-6-6-6-6-6-6-6-6-6-|
G-2-2-2-2-2-2-2-2-2-2-7-7-7-7-7-7-7-7-7-7-|
D-3-3-3-3-3-3-3-3-3-3-7-7-7-7-7-7-7-7-7-7-|
A-3-3-3-3-3-3-3-3-3-3-5-5-5-5-5-5-5-5-5-5-|
E-1-1-1-1-1-1-1-1-1-1---------------------|
   A#                   Gm
e-6-6-6-6-6-6-6-6-6-6-3-3-3-3-3-3-3-3-3-3-|
B-6-6-6-6-6-6-6-6-6-6-3-3-3-3-3-3-3-3-3-3-|
G-7-7-7-7-7-7-7-7-7-7-3-3-3-3-3-3-3-3-3-3-|
D-8-8-8-8-8-8-8-8-8-8-5-5-5-5-5-5-5-5-5-5-|
A-8-8-8-8-8-8-8-8-8-8-5-5-5-5-5-5-5-5-5-5-|
E-6-6-6-6-6-6-6-6-6-6-3-3-3-3-3-3-3-3-3-3-|

Bridge 1
 Dm    A#    Dm       Gm
e-5-----6-----5------3-3-3-3-3-3-3-3-|
B-6-----6-----6------3-3-3-3-3-3-3-3-|
G-7-----7-----7------3-3-3-3-3-3-3-3-|
D-7-----8-----7------5-5-5-5-5-5-5-5-|
A-5-----8-----5------5-5-5-5-5-5-5-5-|
E-------6------------3-3-3-3-3-3-3-3-|

Chorus

e-5-6-8-6-5h6p5-----    -5-6-8-6-5h6p5------------------------|
B---------------6---    ---------------6-------6--8b-8b-8b-8b-|
G-----------------7-    -----------------7-5/7----------------|
D------------------- X3 --------------------------------------|
A-------------------    --------------------------------------|
E-------------------    --------------------------------------|

Break

e-5-7-8-7-5-7-8-7-5-5-----7---8----|
B-5-----8-5-----8-5---5-----5---5--|
G-5-----7-5-----7-5-----5----------|
D-7-------7-------7----------------|
A----------------------------------|
E----------------------------------|

e-----7-7-----8----10---------10------10-8-7-----|
B-8-8-8---8-----8-----8-10-10----10----------8-8-|
G-7-7-7-----7------------7--7-------7------------|
D------------------------------------------------|
A------------------------------------------------|
E------------------------------------------------|

Bridge 3
  A#
e-6-6-6-6-6-6-6-6-3-3-3-3-3-3-3-3-6-6-6-6-6-6-6-6-6-6-|
B-6-6-6-6-6-6-6-6-3-3-3-3-3-3-3-3-6-6-6-6-6-6-6-6-6-6-|
G-7-7-7-7-7-7-7-7-4-4-4-4-4-4-4-4-7-7-7-7-7-7-7-7-7-7-|
D-8-8-8-8-8-8-8-8-5-5-5-5-5-5-5-5-8-8-8-8-8-8-8-8-8-8-|
A-8-8-8-8-8-8-8-8-5-5-5-5-5-5-5-5-8-8-8-8-8-8-8-8-8-8-|
E-6-6-6-6-6-6-6-6-3-3-3-3-3-3-3-3-6-6-6-6-6-6-6-6-6-6-|

Chorus
  F   A          A#
e-1-1-5-5-5-5-/6-6-6-6-6-6-6-6-6-6-6-6-6-6-6-6-6-6-|
B-1-1-5-5-5-5-/6-6-6-6-6-6-6-6-6-6-6-6-6-6-6-6-6-6-|
G-2-2-6-6-6-6-/7-7-7-7-7-7-7-7-7-7-7-7-7-7-7-7-7-7-|
D-3-3-7-7-7-7-/8-8-8-8-8-8-8-8-8-8-8-8-8-8-8-8-8-8-|
A-3-3-7-7-7-7-/8-8-8-8-8-8-8-8-8-8-8-8-8-8-8-8-8-8-|
E-1-1-5-5-5-5-/6-6-6-6-6-6-6-6-6-6-6-6-6-6-6-6-6-6-|

  F   A          A#
e-1-1-5-5-5-5-/6-6-6-6-6-6-6-6-6-6-6-6-6-6-6-6-6-6-|
B-1-1-5-5-5-5-/6-6-6-6-6-6-6-6-6-6-6-6-6-6-6-6-6-6-|
G-2-2-6-6-6-6-/7-7-7-7-7-7-7-7-7-7-7-7-7-7-7-7-7-7-|
D-3-3-7-7-7-7-/8-8-8-8-8-8-8-8-8-8-8-8-8-8-8-8-8-8-|
A-3-3-7-7-7-7-/8-8-8-8-8-8-8-8-8-8-8-8-8-8-8-8-8-8-|
E-1-1-5-5-5-5-/6-6-6-6-6-6-6-6-6-6-6-6-6-6-6-6-6-6-|

  F   A          A#
e-1-1-5-5-5-5-/6-6-6-6-6-6-6-6-6-6-6-6-6-6-6-6-6-6-|
B-1-1-5-5-5-5-/6-6-6-6-6-6-6-6-6-6-6-6-6-6-6-6-6-6-|
G-2-2-6-6-6-6-/7-7-7-7-7-7-7-7-7-7-7-7-7-7-7-7-7-7-|
D-3-3-7-7-7-7-/8-8-8-8-8-8-8-8-8-8-8-8-8-8-8-8-8-8-|
A-3-3-7-7-7-7-/8-8-8-8-8-8-8-8-8-8-8-8-8-8-8-8-8-8-|
E-1-1-5-5-5-5-/6-6-6-6-6-6-6-6-6-6-6-6-6-6-6-6-6-6-|

  F   A          A#
e-1-1-5-5-5-5-/6-6-6-6-6-6-6-6-6-6-6-6-6-6-6-6-6-6-|
B-1-1-5-5-5-5-/6-6-6-6-6-6-6-6-6-6-6-6-6-6-6-6-6-6-|
G-2-2-6-6-6-6-/7-7-7-7-7-7-7-7-7-7-7-7-7-7-7-7-7-7-|
D-3-3-7-7-7-7-/8-8-8-8-8-8-8-8-8-8-8-8-8-8-8-8-8-8-|
A-3-3-7-7-7-7-/8-8-8-8-8-8-8-8-8-8-8-8-8-8-8-8-8-8-|
E-1-1-5-5-5-5-/6-6-6-6-6-6-6-6-6-6-6-6-6-6-6-6-6-6-|

Outro

e---------------------|
B------8-10-10-8------|
G-7-10-----------10-7-|
D---------------------| X18  too lazy to tab it all out sheesh well copy and paste =p
A---------------------|
E---------------------|


I donít believe in anything

They tell meís set in stone

They say that were together

But Iím sat here on my own

In the company of strangers

This trigger happy scene

Well if a heart do like a hind

Then there is nothing in-between

Oh no, no I donít mind

Oh no, no I donít mind

Cause I can call someone to bring the fight on

(the doctors and the dealers)

Get someone to shed some light on

(miracle cure, soul stealers)

Crack pot quacks with cracked up egos

(prescribing old placebos)

Collecting junk that we dont need, no

I see them now and then

Still spitting out those lies

Strange it doesnít bother me

Iíve got my own disguise

And thereís really not that much of me

For Jesus left to save

If savings only bartering

My soul can be his pay

Oh no, no I dont mind

Oh no, no I dont mind


Cause I can call someone to bring the fight on

(the doctors and the dealers)

Yes someone to shed some light on

(miracle cure soul stealers)

Crack pot quacks with cracked up egos

(prescribing old placebos)

Collecting junk that we dont need, no

You got the ball

I was lucky to get the chain

But now I have to watch the crowds

Haphazardly chasing down the drain

So what does it do?

Nothing for me

What about you?

The doctors and the dealers

The doctors and the dealers

The doctors and the dealers

They come to you

They come to me

They come in droves

Oh one two three

They come to you

they come to me

They come in droves

Oh one two three

They come to you

they come to me

They come in droves

Oh one two three

They come to you

Oh they come to me

They come in droves

Oh one two three

They come to me

I also believe I got this one right too any corrections PM me.


Bang, Bang You're Dead

Anthony's Horn

e-------8--8-9-9-11------------------------------------------|
B----10--10----------10-8-6---6-9-9-9-8-6-9-8-6---10-8-10----|
G---------------------------7-------------------5------------|
D------------------------------------------------------------|
A------------------------------------------------------------|
E------------------------------------------------------------|

Carl's Parts

Intro

Tiny bit after Anthony starts

e--------8-------8------5-----------------------------------------------|
B-/10-10---10-10---10-6---6-8-6----6-------6----6----6--8(B)(R)B 6h8p6--|
G-------------------------------5h7---7-5h7--5h7--5h7-------------------|
D-----------------------------------------------------------------------|
A-----------------------------------------------------------------------|
E-----------------------------------------------------------------------|

e------------------------------------------------------13-13-13-12-12-12-|
B-8(B)(R)6--8(B)(R)6--8(B)(R)6--8(B)(R)6---------------------------------|
G---------7---------7---------7---------7--------------------------------|
D------------------------------------------------------------------------|
A------------------------------------------------------------------------|
E------------------------------------------------------------------------|
                   Hold Bend           Verses have started by here
e-10-10-10-8-8-8-6--------------------------------------------------------|
B------------------8(B)-8-8-8(R)-6-------5--------------------------------|
G-------------------------------------------------------------------------|
D-------------------------------------------------------------------------|
A-------------------------------------------------------------------------|
E-------------------------------------------------------------------------|

Verse 1

1/2
               F         A         Dm                 A#    A#m
e-x-x-x-x-x-x-1-1-1-1-1-5-5-5-5-5-5-5-5-5-5-5-5-5-5-5--6------6-|
B-x-x-x-x-x-x-1-1-1-1-1-5-5-5-5-5-6-6-6-6-6-6-6-6-6-6--6------6-|
G-x-x-x-x-x-x-2-2-2-2-2-6-6-6-6-6-7-7-7-7-7-7-7-7-7-7--7------6-|
D-x-x-x-x-x-x-3-3-3-3-3-7-7-7-7-7-7-7-7-7-7-7-7-7-7-7--8------8-|
A-x-x-x-x-x-x-3-3-3-3-3-7-7-7-7-7-5-5-5-5-5-5-5-5-5-5--8------8-|
E-x-x-x-x-x-x-1-1-1-1-1-5-5-5-5-5----------------------6------6-|

Pre Chorus
   Dm        A        Dm        A    A# A        C
e-5-5-5-5-5-5-5-5-5-5-5-5-5-5-5-5-5-5-6-5       -3--3--3--3-3-3-3-3-3-3-|
B-6-6-6-6-6-5-5-5-5-5-6-6-6-6-6-5-5-5-6-5       -5--5--5--5-5-5-5-5-5-5-|
G-7-7-7-7-7-6-6-6-6-6-7-7-7-7-7-6-6-6-7-6  x2   -5--5--5--5-5-5-5-5-5-5-|
D-7-7-7-7-7-7-7-7-7-7-7-7-7-7-7-7-7-7-8-7       -5--5--5--5-5-5-5-5-5-5-|
A-5-5-5-5-5-7-7-7-7-7-5-5-5-5-5-7-7-7-8-7       -3--3--3--3-3-3-3-3-3-3-|
E-----------5-5-5-5-5-----------5-5-5-6-5       ------------------------|

Chorus
   F         A        Dm           A#   A G         F  A   Dm
e-1-1-1-1-1-5-5-5-5-5-5-5-5-5-5---6-6-6-5-3-       -1--5--5-5-5-5-|
B-1-1-1-1-1-5-5-5-5-5-6-6-6-6-6---6-6-6-5-3-       -1--5--7-7-7-7-|
G-2-2-2-2-2-6-6-6-6-6-7-7-7-7-7---7-7-7-6-4-       -2--6--7-7-7-7-|
D-3-3-3-3-3-7-7-7-7-7-7-7-7-7-7---8-8-8-7-5-  x2   -3--7--7-7-7-7-|
A-3-3-3-3-3-7-7-7-7-7-5-5-5-5-5---8-8-8-7-5-       -3--7--5-5-5-5-|
E-1-1-1-1-1-5-5-5-5-5-------------6-6-6-5-3-       -1--5----------|

Verse 2

1/2
               F        A          Dm                 A#     A#m
e-x-x-x-x-x-x-1-1-1-1-1-5-5-5-5-5-5-5-5-5-5-5-5-5-5-5--6------6-|
B-x-x-x-x-x-x-1-1-1-1-1-5-5-5-5-5-6-6-6-6-6-6-6-6-6-6--6------6-|
G-x-x-x-x-x-x-2-2-2-2-2-6-6-6-6-6-7-7-7-7-7-7-7-7-7-7--7------6-|
D-x-x-x-x-x-x-3-3-3-3-3-7-7-7-7-7-7-7-7-7-7-7-7-7-7-7--8------8-|
A-x-x-x-x-x-x-3-3-3-3-3-7-7-7-7-7-5-5-5-5-5-5-5-5-5-5--8------8-|
E-x-x-x-x-x-x-1-1-1-1-1-5-5-5-5-5----------------------6------6-|

Break

e---10--10-10-10-10-10-9-9-9-8-8-8-7-7-7-      -----------|
B----------------------------------------      -----------|
G-7---7----------------------------------      -----------|
D----------------------------------------  x3  -7-7-7-8-7-|
A----------------------------------------      -----------|
E----------------------------------------      -----------|

   A    A# A
e--5-5-5-6-5---|
B--5-5-5-6-5---|
G--6-6-6-7-6---|
D--7-7-7-8-7---|
A--7-7-7-8-7---|
E--5-5-5-6-5---|

Chorus
   F         A         Dm          A#   A G         F  A  Dm
e-1-1-1-1-1-5-5-5-5-5-5-5-5-5-5---6-6-6-5-3-       -1--5--5-5-5-5-|
B-1-1-1-1-1-5-5-5-5-5-6-6-6-6-6---6-6-6-5-3-       -1--5--7-7-7-7-|
G-2-2-2-2-2-6-6-6-6-6-7-7-7-7-7---7-7-7-6-4-       -2--6--7-7-7-7-|
D-3-3-3-3-3-7-7-7-7-7-7-7-7-7-7---8-8-8-7-5-  x2   -3--7--7-7-7-7-|
A-3-3-3-3-3-7-7-7-7-7-5-5-5-5-5---8-8-8-7-5-       -3--7--5-5-5-5-|
E-1-1-1-1-1-5-5-5-5-5-------------6-6-6-5-3-       -1--5----------|

Solo

e--------8-------8------5-----------------------------------------------|
B-/10-10---10-10---10-6---6-8-6----6-8-8-8-8-8-8-8-8-8-6-6-6-8-9-10-----|
G-------------------------------5h7-------------------------------------|
D-----------------------------------------------------------------------|
A-----------------------------------------------------------------------|
E-----------------------------------------------------------------------|
                                                  Hold Bend
e------------13-13-13-12-12-12-10-10-10-8-8-8-6--------------------------|
B-9-8-6-8-10------------------------------------8(B)-8-8-8(R)-6/12\0-----|
G------------------------------------------------------------------------|
D------------------------------------------------------------------------|
A------------------------------------------------------------------------|
E------------------------------------------------------------------------|

Pre-Chorus:
   Dm         A        Dm        A   A# A         C
e-5-5-5-5-5-5-5-5-5-5-5-5-5-5-5-5-5-5-6-5       -3--3--3--3-|
B-6-6-6-6-6-5-5-5-5-5-6-6-6-6-6-5-5-5-6-5       -5--5--5--5-|
G-7-7-7-7-7-6-6-6-6-6-7-7-7-7-7-6-6-6-7-6  x2   -5--5--5--5-|
D-7-7-7-7-7-7-7-7-7-7-7-7-7-7-7-7-7-7-8-7       -5--5--5--5-|
A-5-5-5-5-5-7-7-7-7-7-5-5-5-5-5-7-7-7-8-7       -3--3--3--3-|
E-----------5-5-5-5-5-----------5-5-5-6-5       ------------|

Chorus:
  F          A         Dm         A#    A G         F  A Dm A#
e-1-1-1-1-1-5-5-5-5-5-5-5-5-5-5---6-6-6-5-3-       -1--5--5-6-|
B-1-1-1-1-1-5-5-5-5-5-6-6-6-6-6---6-6-6-5-3-       -1--5--7-6-|
G-2-2-2-2-2-6-6-6-6-6-7-7-7-7-7---7-7-7-6-4-       -2--6--7-7-|
D-3-3-3-3-3-7-7-7-7-7-7-7-7-7-7---8-8-8-7-5-  x2   -3--7--7-8-|
A-3-3-3-3-3-7-7-7-7-7-5-5-5-5-5---8-8-8-7-5-       -3--7--5-8-|
E-1-1-1-1-1-5-5-5-5-5-------------6-6-6-5-3-       -1--5----6-|
  F A Dm A# F
e-1-5-5--6--1-|
B-1-5-6--6--1-|
G-2-6-7--7--2-|
D-3-7-7--8--3-|
A-3-7-5--8--3-|
E-1-5----6--1-|


Anthony's Parts

Intro

  Dm                                     C
e-5-5-5-5-5-5-5-5-5-5-5-5-5-5-5-5-5-5-5-3-3-3-3-3-3-|
B-6-6-6-6-6-6-6-6-6-6-6-6-6-6-6-6-6-6-6-5-5-5-5-5-5-|
G-7-7-7-7-7-7-7-7-7-7-7-7-7-7-7-7-7-7-7-5-5-5-5-5-5-|
D-7-7-7-7-7-7-7-7-7-7-7-7-7-7-7-7-7-7-7-5-5-5-5-5-5-|
A-5-5-5-5-5-5-5-5-5-5-5-5-5-5-5-5-5-5-5-3-3-3-3-3-3-|
E---------------------------------------------------|
  F            A           Dm                    A#          A#m
e-1-1-1-1-1-1-5-5-5-5-5-5-5-5-5-5-5-5-5-5-5-5-5-6-6-6-6-6-6-6-6-6-6-6-6-|
B-1-1-1-1-1-1-5-5-5-5-5-5-6-6-6-6-6-6-6-6-6-6-6-6-6-6-6-6-6-6-6-6-6-6-6-|
G-2-2-2-2-2-2-6-6-6-6-6-6-7-7-7-7-7-7-7-7-7-7-7-7-7-7-7-7-7-6-6-6-6-6-6-|
D-3-3-3-3-3-3-7-7-7-7-7-7-7-7-7-7-7-7-7-7-7-7-7-8-8-8-8-8-8-8-8-8-8-8-8-|
A-3-3-3-3-3-3-7-7-7-7-7-7-5-5-5-5-5-5-5-5-5-5-5-8-8-8-8-8-8-8-8-8-8-8-8-|
E-1-1-1-1-1-1-5-5-5-5-5-5-----------------------6-6-6-6-6-6-6-6-6-6-6-6-|

Verse 1
   F        A         Dm                   A#         A#m    F
e-1-1-1-1-1-5-5-5-5-5-5-5-5-5-5-5-5-5-5-5--6-6-6-6---6-6-6-6-1-1-1-1-1---|
B-1-1-1-1-1-5-5-5-5-5-6-6-6-6-6-6-6-6-6-6--6-6-6-6---6-6-6-6-1-1-1-1-1---|
G-2-2-2-2-2-6-6-6-6-6-7-7-7-7-7-7-7-7-7-7--7-7-7-7---6-6-6-6-2-2-2-2-2---|
D-3-3-3-3-3-7-7-7-7-7-7-7-7-7-7-7-7-7-7-7--8-8-8-8---8-8-8-8-3-3-3-3-3---|
A-3-3-3-3-3-7-7-7-7-7-5-5-5-5-5-5-5-5-5-5--8-8-8-8---8-8-8-8-3-3-3-3-3---|
E-1-1-1-1-1-5-5-5-5-5----------------------6-6-6-6---6-6-6-6-1-1-1-1-1---|

   during Carls muting part

1/2

e-13-13-13-12-12-12-10-10-10-8-8-8-|
B----------------------------------|
G----------------------------------|
D----------------------------------|
A----------------------------------|
E----------------------------------|
   F         A         Dm                 A#     A#m
e-1-1-1-1-1-5-5-5-5-5-5-5-5-5-5-5-5-5-5-5--6------6-|
B-1-1-1-1-1-5-5-5-5-5-6-6-6-6-6-6-6-6-6-6--6------6-|
G-2-2-2-2-2-6-6-6-6-6-7-7-7-7-7-7-7-7-7-7--7------6-|
D-3-3-3-3-3-7-7-7-7-7-7-7-7-7-7-7-7-7-7-7--8------8-|
A-3-3-3-3-3-7-7-7-7-7-5-5-5-5-5-5-5-5-5-5--8------8-|
E-1-1-1-1-1-5-5-5-5-5----------------------6------6-|

Pre Chorus
   Dm       A          Dm       A    A# A        C
e-5-5-5-5-5-5-5-5-5-5-5-5-5-5-5-5-5-5-6-5       -3--3--3--3-|
B-6-6-6-6-6-5-5-5-5-5-6-6-6-6-6-5-5-5-6-5       -5--5--5--5-|
G-7-7-7-7-7-6-6-6-6-6-7-7-7-7-7-6-6-6-7-6  x2   -5--5--5--5-|
D-7-7-7-7-7-7-7-7-7-7-7-7-7-7-7-7-7-7-8-7       -5--5--5--5-|
A-5-5-5-5-5-7-7-7-7-7-5-5-5-5-5-7-7-7-8-7       -3--3--3--3-|
E-----------5-5-5-5-5-----------5-5-5-6-5       ------------|

Chorus
   F         A         Dm          A#   A G         F  A  Dm
e-1-1-1-1-1-5-5-5-5-5-5-5-5-5-5---6-6-6-5-3-       -1--5--5-5-5-5-|
B-1-1-1-1-1-5-5-5-5-5-6-6-6-6-6---6-6-6-5-3-       -1--5--7-7-7-7-|
G-2-2-2-2-2-6-6-6-6-6-7-7-7-7-7---7-7-7-6-4-       -2--6--7-7-7-7-|
D-3-3-3-3-3-7-7-7-7-7-7-7-7-7-7---8-8-8-7-5-  x2   -3--7--7-7-7-7-|
A-3-3-3-3-3-7-7-7-7-7-5-5-5-5-5---8-8-8-7-5-       -3--7--5-5-5-5-|
E-1-1-1-1-1-5-5-5-5-5-------------6-6-6-5-3-       -1--5----------|

Post Chorus
  A     G
e-5-5-5-3-3-3-|
B-5-5-5-3-3-3-|
G-6-6-6-4-4-4-|
D-7-7-7-5-5-5-|
A-7-7-7-5-5-5-|
E-5-5-5-3-3-3-|

Verse 2
   F         A         Dm                   A#        A#m     F
e-1-1-1-1-1-5-5-5-5-5-5-5-5-5-5-5-5-5-5-5--6-6-6-6---6-6-6-6-1-1-1-1-1---|
B-1-1-1-1-1-5-5-5-5-5-6-6-6-6-6-6-6-6-6-6--6-6-6-6---6-6-6-6-1-1-1-1-1---|
G-2-2-2-2-2-6-6-6-6-6-7-7-7-7-7-7-7-7-7-7--7-7-7-7---6-6-6-6-2-2-2-2-2---|
D-3-3-3-3-3-7-7-7-7-7-7-7-7-7-7-7-7-7-7-7--8-8-8-8---8-8-8-8-3-3-3-3-3---|
A-3-3-3-3-3-7-7-7-7-7-5-5-5-5-5-5-5-5-5-5--8-8-8-8---8-8-8-8-3-3-3-3-3---|
E-1-1-1-1-1-5-5-5-5-5----------------------6-6-6-6---6-6-6-6-1-1-1-1-1---|

   during Carls muting part

1/2

e-13-13-13-12-12-12-10-10-10-8-8-8-|
B----------------------------------|
G----------------------------------|
D----------------------------------|
A----------------------------------|
E----------------------------------|
  F          A              Dm            A#     A#m
e-1-1-1-1-1-5-5-5-5-5-5-5-5-5-5-5-5-5-5-5--6------6-|
B-1-1-1-1-1-5-5-5-5-5-6-6-6-6-6-6-6-6-6-6--6------6-|
G-2-2-2-2-2-6-6-6-6-6-7-7-7-7-7-7-7-7-7-7--7------6-|
D-3-3-3-3-3-7-7-7-7-7-7-7-7-7-7-7-7-7-7-7--8------8-|
A-3-3-3-3-3-7-7-7-7-7-5-5-5-5-5-5-5-5-5-5--8------8-|
E-1-1-1-1-1-5-5-5-5-5----------------------6------6-|

Break

something played around the Dm C G A area of barre chords =P

   A    A# A    A   A# A
e--5-5-5-6-5---5-5-5-6-5-|
B--5-5-5-6-5---5-5-5-6-5-|
G--6-6-6-7-6---6-6-6-7-6-|
D--7-7-7-8-7---7-7-7-8-7-|
A--7-7-7-8-7---7-7-7-8-7-|
E--5-5-5-6-5---5-5-5-6-5-|

Chorus
   F         A          Dm         A#   A G         F  A   Dm
e-1-1-1-1-1-5-5-5-5-5-5-5-5-5-5---6-6-6-5-3-       -1--5--5-5-5-5-|
B-1-1-1-1-1-5-5-5-5-5-6-6-6-6-6---6-6-6-5-3-       -1--5--7-7-7-7-|
G-2-2-2-2-2-6-6-6-6-6-7-7-7-7-7---7-7-7-6-4-       -2--6--7-7-7-7-|
D-3-3-3-3-3-7-7-7-7-7-7-7-7-7-7---8-8-8-7-5-  x2   -3--7--7-7-7-7-|
A-3-3-3-3-3-7-7-7-7-7-5-5-5-5-5---8-8-8-7-5-       -3--7--5-5-5-5-|
E-1-1-1-1-1-5-5-5-5-5-------------6-6-6-5-3-       -1--5----------|

Solo
  F             A         Dm                     A#          A#m
e-1-1-1-1-1-1-5-5-5-5-5-5-5-5-5-5-5-5-5-5-5-5-5-6-6-6-6-6-6-6-6-6-6-6-6-|
B-1-1-1-1-1-1-5-5-5-5-5-5-6-6-6-6-6-6-6-6-6-6-6-6-6-6-6-6-6-6-6-6-6-6-6-|
G-2-2-2-2-2-2-6-6-6-6-6-6-7-7-7-7-7-7-7-7-7-7-7-7-7-7-7-7-7-6-6-6-6-6-6-|
D-3-3-3-3-3-3-7-7-7-7-7-7-7-7-7-7-7-7-7-7-7-7-7-8-8-8-8-8-8-8-8-8-8-8-8-|
A-3-3-3-3-3-3-7-7-7-7-7-7-5-5-5-5-5-5-5-5-5-5-5-8-8-8-8-8-8-8-8-8-8-8-8-|
E-1-1-1-1-1-1-5-5-5-5-5-5-----------------------6-6-6-6-6-6-6-6-6-6-6-6-|

Pre-Chorus
   Dm       A        Dm         A    A# A         C
e-5-5-5-5-5-5-5-5-5-5-5-5-5-5-5-5-5-5-6-5       -3--3--3--3-|
B-6-6-6-6-6-5-5-5-5-5-6-6-6-6-6-5-5-5-6-5       -5--5--5--5-|
G-7-7-7-7-7-6-6-6-6-6-7-7-7-7-7-6-6-6-7-6  x2   -5--5--5--5-|
D-7-7-7-7-7-7-7-7-7-7-7-7-7-7-7-7-7-7-8-7       -5--5--5--5-|
A-5-5-5-5-5-7-7-7-7-7-5-5-5-5-5-7-7-7-8-7       -3--3--3--3-|
E-----------5-5-5-5-5-----------5-5-5-6-5       ------------|

Chorus
  F          A         Dm          A#   A G        F  A Dm  A#
e-1-1-1-1-1-5-5-5-5-5-5-5-5-5-5---6-6-6-5-3-      -1--5--5--6-|
B-1-1-1-1-1-5-5-5-5-5-6-6-6-6-6---6-6-6-5-3-      -1--5--7--6-|
G-2-2-2-2-2-6-6-6-6-6-7-7-7-7-7---7-7-7-6-4-      -2--6--7--7-|
D-3-3-3-3-3-7-7-7-7-7-7-7-7-7-7---8-8-8-7-5-  x2  -3--7--7--8-|
A-3-3-3-3-3-7-7-7-7-7-5-5-5-5-5---8-8-8-7-5-      -3--7--5--8-|
E-1-1-1-1-1-5-5-5-5-5-------------6-6-6-5-3-      -1--5-----6-|

 F A Dm A# F
e-1-5-5--6--1-|
B-1-5-6--6--1-|
G-2-6-7--7--2-|
D-3-7-7--8--3-|
A-3-7-5--8--3-|
E-1-5----6--1-|

I knew all along
That I was right at the start
bout the seeds of the weeds
That grew in your heart
Self satisfaction for the factions
Who formed to tear us apart
Well I gave you the Midas touch
Oh you turned round and scratched out my heart

Oh what did you expect?
Oh tell me what did you expect?
To lay it on my head
So is it all upon my head?

Bang bang you're dead
Oh Im so easily lead
Bang bang you're dead
Put all the rumours to bed
Bang bang youíre dead

I knew all along
But I was loathe to believe
There was nothing but spite
Fury and lies on the words that you weep

An illusions to conclusion at all
It's all such a dream
The way you put it to bed
Kick it in the head
Oh wont they just let it be

Bang bang you're dead
Oh Im so easily lead
Bang bang you're dead
Put all the rumours to bed
Bang bang youíre dead

Oh what did you expect?
Oh tell me what did you expect?
To lay it on my head
So is it all upon my head?

Bang bang you're dead
Always so easily lead
Bang bang you're dead
Put all the rumours to bed
Bang bang youíre dead

Bang bang
bang bang you're dead
oh you're dead

Once again I believe I got this one right any corrections PM me.

Bloodthirsty Bastards

Carl's Parts

Intro
  during intro 1/4 for first one then during 3/4 for second time
  C#m
e-4------4-----|
B-5------5-----|
G-6------6-----|
D-6------6-----|
A-4------4-----|
E--------------|

Bridge

e-5~~----2~~----2~~-----4-4-4-4-4-4-|
B-5~~----2~~----4~~-----4-4-4-4-4-4-|
G-6~~----3~~----4~~-----4-4-4-4-4-4-|
D-7~~----4~~----4~~-----6-6-6-6-6-6-|
A-7~~----4~~----2~~-----6-6-6-6-6-6-|
E-5~~----2~~------------4-4-4-4-4-4-|

Chorus
e-4-4-4-4-4-4-0-0-0-4-4-4-4-|
B-5-5-5-4-4-4-0-0-0-4-4-4-4-|
G-6-6-6-4-4-4-1-1-1-4-4-4-4-|
D-6-6-6-6-6-6-2-2-2-6-6-6-6-|
A-4-4-4-6-6-6-2-2-2-6-6-6-6-|
E-------4-4-4-0-0-0-4-4-4-4-|

e-4-4-4-4-4-4-0-0-0-4-4-4-4-|
B-5-5-5-4-4-4-0-0-0-4-4-4-4-|
G-6-6-6-4-4-4-1-1-1-4-4-4-4-|
D-6-6-6-6-6-6-2-2-2-6-6-6-6-|
A-4-4-4-6-6-6-2-2-2-6-6-6-6-|
E-------4-4-4-0-0-0-4-4-4-4-|

e-4-4-4-4-4-4-0-0-0-4-4-4-4-|
B-5-5-5-4-4-4-0-0-0-4-4-4-4-|
G-6-6-6-4-4-4-1-1-1-4-4-4-4-|
D-6-6-6-6-6-6-2-2-2-6-6-6-6-|
A-4-4-4-6-6-6-2-2-2-6-6-6-6-|
E-------4-4-4-0-0-0-4-4-4-4-|

e-4-4-4-4-4-4-0-0-0-4-4-4-4-|
B-5-5-5-4-4-4-0-0-0-4-4-4-4-|
G-6-6-6-4-4-4-1-1-1-4-4-4-4-|
D-6-6-6-6-6-6-2-2-2-6-6-6-6-|
A-4-4-4-6-6-6-2-2-2-6-6-6-6-|
E-------4-4-4-0-0-0-4-4-4-4-|

Break

e-5-5-5-0-0-0-2-2-2-4-4-4-5-5-5-5-4-4-4-5-5-5-|
B-5-5-5-0-0-0-2-2-2-4-4-4-5-5-5-5-4-4-4-5-5-5-|
G-6-6-6-1-1-1-3-3-3-4-4-4-6-6-6-6-4-4-4-6-6-6-|
D-7-7-7-2-2-2-4-4-4-6-6-6-7-7-7-7-6-6-6-7-7-7-|
A-7-7-7-2-2-2-4-4-4-6-6-6-7-7-7-7-6-6-6-7-7-7-|
E-5-5-5-0-0-0-2-2-2-4-4-4-5-5-5-5-4-4-4-5-5-5-|

e-5-5-5-0-0-0-2-2-2-4-4-4-|
B-5-5-5-0-0-0-2-2-2-4-4-4-|
G-6-6-6-1-1-1-3-3-3-4-4-4-|
D-7-7-7-2-2-2-4-4-4-6-6-6-|
A-7-7-7-2-2-2-4-4-4-6-6-6-|
E-5-5-5-0-0-0-2-2-2-4-4-4-|

e-5-5-5-5-4-4-4-4-4-5-5-5-5-4-4-4-4-4-|
B-5-5-5-5-4-4-4-4-4-5-5-5-5-4-4-4-4-4-|
G-6-6-6-6-4-4-4-4-4-6-6-6-6-4-4-4-4-4-|
D-7-7-7-7-6-6-6-6-6-7-7-7-7-6-6-6-6-6-|
A-7-7-7-7-6-6-6-6-6-7-7-7-7-6-6-6-6-6-|
E-5-5-5-5-4-4-4-4-4-5-5-5-5-4-4-4-4-4-|

Bridge

e-5-5-5-5-5-2-2-2-2-2-2-2-2-2-2-4-4-4-4-4-4-|
B-5-5-5-5-5-2-2-2-2-2-4-4-4-4-4-4-4-4-4-4-4-|
G-6-6-6-6-6-3-3-3-3-3-4-4-4-4-4-4-4-4-4-4-4-|
D-7-7-7-7-7-4-4-4-4-4-4-4-4-4-4-6-6-6-6-6-6-|
A-7-7-7-7-7-4-4-4-4-4-2-2-2-2-2-6-6-6-6-6-6-|
E-5-5-5-5-5-2-2-2-2-2-----------4-4-4-4-4-4-|

Chorus
e-4-4-4-4-4-4-0-0-0-4-4-4-4-|
B-5-5-5-4-4-4-0-0-0-4-4-4-4-|
G-6-6-6-4-4-4-1-1-1-4-4-4-4-|
D-6-6-6-6-6-6-2-2-2-6-6-6-6-|
A-4-4-4-6-6-6-2-2-2-6-6-6-6-|
E-------4-4-4-0-0-0-4-4-4-4-|

e-4-4-4-4-4-4-0-0-0-4-4-4-4-|
B-5-5-5-4-4-4-0-0-0-4-4-4-4-|
G-6-6-6-4-4-4-1-1-1-4-4-4-4-|
D-6-6-6-6-6-6-2-2-2-6-6-6-6-|
A-4-4-4-6-6-6-2-2-2-6-6-6-6-|
E-------4-4-4-0-0-0-4-4-4-4-|

e-4-4-4-4-4-4-0-0-0-4-4-4-4-|
B-5-5-5-4-4-4-0-0-0-4-4-4-4-|
G-6-6-6-4-4-4-1-1-1-4-4-4-4-|
D-6-6-6-6-6-6-2-2-2-6-6-6-6-|
A-4-4-4-6-6-6-2-2-2-6-6-6-6-|
E-------4-4-4-0-0-0-4-4-4-4-|

e-4-4-4-4-4-4-0-0-0-4-4-4-4-|
B-5-5-5-4-4-4-0-0-0-4-4-4-4-|
G-6-6-6-4-4-4-1-1-1-4-4-4-4-|
D-6-6-6-6-6-6-2-2-2-6-6-6-6-|
A-4-4-4-6-6-6-2-2-2-6-6-6-6-|
E-------4-4-4-0-0-0-4-4-4-4-|

Chorus
e-4-4-4-4-4-4-0-0-0-4-4-4-4-|
B-5-5-5-4-4-4-0-0-0-4-4-4-4-|
G-6-6-6-4-4-4-1-1-1-4-4-4-4-|
D-6-6-6-6-6-6-2-2-2-6-6-6-6-|
A-4-4-4-6-6-6-2-2-2-6-6-6-6-|
E-------4-4-4-0-0-0-4-4-4-4-|

e-4-4-4-4-4-4-0-0-0-4-4-4-4-|
B-5-5-5-4-4-4-0-0-0-4-4-4-4-|
G-6-6-6-4-4-4-1-1-1-4-4-4-4-|
D-6-6-6-6-6-6-2-2-2-6-6-6-6-|
A-4-4-4-6-6-6-2-2-2-6-6-6-6-|
E-------4-4-4-0-0-0-4-4-4-4-|

e-4-4-4-4-4-4-0-0-0-4-4-4-4-|
B-5-5-5-4-4-4-0-0-0-4-4-4-4-|
G-6-6-6-4-4-4-1-1-1-4-4-4-4-|
D-6-6-6-6-6-6-2-2-2-6-6-6-6-|
A-4-4-4-6-6-6-2-2-2-6-6-6-6-|
E-------4-4-4-0-0-0-4-4-4-4-|

e-4-4-4-4-4-4-0-0-0-4-4-4-4-|
B-5-5-5-4-4-4-0-0-0-4-4-4-4-|
G-6-6-6-4-4-4-1-1-1-4-4-4-4-|
D-6-6-6-6-6-6-2-2-2-6-6-6-6-|
A-4-4-4-6-6-6-2-2-2-6-6-6-6-|
E-------4-4-4-0-0-0-4-4-4-4-|

Outro

during intro 1/4 for first one then during 3/4 for second time
  C#m
e-4------4-----|
B-5------5-----|
G-6------6-----|
D-6------6-----|
A-4------4-----|
E--------------|

Anthony's Parts

Intro

e-9--------9--------9-------------9-------9-|
B-9--------9--------9-------------9-------9-|
G-9-9-11-9-9-9-11-9-9-9-11-9----9-9-9-11b-9-|
D----------------------------11-------------|
A-------------------------------------------|
E-------------------------------------------|

Verse
goof around with C#m G#m A E G#m

Bridge
goof around with A F#m B G#m

Chorus
e-4-4-4-4-4-4-0-0-0-4-4-4-4-|
B-5-5-5-4-4-4-0-0-0-4-4-4-4-|
G-6-6-6-4-4-4-1-1-1-4-4-4-4-|
D-6-6-6-6-6-6-2-2-2-6-6-6-6-|
A-4-4-4-6-6-6-2-2-2-6-6-6-6-|
E-------4-4-4-0-0-0-4-4-4-4-|

e-4-4-4-4-4-4-0-0-0-4-4-4-4-|
B-5-5-5-4-4-4-0-0-0-4-4-4-4-|
G-6-6-6-4-4-4-1-1-1-4-4-4-4-|
D-6-6-6-6-6-6-2-2-2-6-6-6-6-|
A-4-4-4-6-6-6-2-2-2-6-6-6-6-|
E-------4-4-4-0-0-0-4-4-4-4-|

e-4-4-4-4-4-4-0-0-0-4-4-4-4-|
B-5-5-5-4-4-4-0-0-0-4-4-4-4-|
G-6-6-6-4-4-4-1-1-1-4-4-4-4-|
D-6-6-6-6-6-6-2-2-2-6-6-6-6-|
A-4-4-4-6-6-6-2-2-2-6-6-6-6-|
E-------4-4-4-0-0-0-4-4-4-4-|

e-4-4-4-4-4-4-0-0-0-4-4-4-4-|
B-5-5-5-4-4-4-0-0-0-4-4-4-4-|
G-6-6-6-4-4-4-1-1-1-4-4-4-4-|
D-6-6-6-6-6-6-2-2-2-6-6-6-6-|
A-4-4-4-6-6-6-2-2-2-6-6-6-6-|
E-------4-4-4-0-0-0-4-4-4-4-|

Chorus
e-4-4-4-4-4-4-0-0-0-4-4-4-4-|
B-5-5-5-4-4-4-0-0-0-4-4-4-4-|
G-6-6-6-4-4-4-1-1-1-4-4-4-4-|
D-6-6-6-6-6-6-2-2-2-6-6-6-6-|
A-4-4-4-6-6-6-2-2-2-6-6-6-6-|
E-------4-4-4-0-0-0-4-4-4-4-|

e-4-4-4-4-4-4-0-0-0-4-4-4-4-|
B-5-5-5-4-4-4-0-0-0-4-4-4-4-|
G-6-6-6-4-4-4-1-1-1-4-4-4-4-|
D-6-6-6-6-6-6-2-2-2-6-6-6-6-|
A-4-4-4-6-6-6-2-2-2-6-6-6-6-|
E-------4-4-4-0-0-0-4-4-4-4-|

e-4-4-4-4-4-4-0-0-0-4-4-4-4-|
B-5-5-5-4-4-4-0-0-0-4-4-4-4-|
G-6-6-6-4-4-4-1-1-1-4-4-4-4-|
D-6-6-6-6-6-6-2-2-2-6-6-6-6-|
A-4-4-4-6-6-6-2-2-2-6-6-6-6-|
E-------4-4-4-0-0-0-4-4-4-4-|

e-4-4-4-4-4-4-0-0-0-4-4-4-4-|
B-5-5-5-4-4-4-0-0-0-4-4-4-4-|
G-6-6-6-4-4-4-1-1-1-4-4-4-4-|
D-6-6-6-6-6-6-2-2-2-6-6-6-6-|
A-4-4-4-6-6-6-2-2-2-6-6-6-6-|
E-------4-4-4-0-0-0-4-4-4-4-|

Verse 2
goof around C#m G#m A E G#m

Bridge
goof around with A F#m B G#m

Chorus
e-4-4-4-4-4-4-0-0-0-4-4-4-4-|
B-5-5-5-4-4-4-0-0-0-4-4-4-4-|
G-6-6-6-4-4-4-1-1-1-4-4-4-4-|
D-6-6-6-6-6-6-2-2-2-6-6-6-6-|
A-4-4-4-6-6-6-2-2-2-6-6-6-6-|
E-------4-4-4-0-0-0-4-4-4-4-|

e-4-4-4-4-4-4-0-0-0-4-4-4-4-|
B-5-5-5-4-4-4-0-0-0-4-4-4-4-|
G-6-6-6-4-4-4-1-1-1-4-4-4-4-|
D-6-6-6-6-6-6-2-2-2-6-6-6-6-|
A-4-4-4-6-6-6-2-2-2-6-6-6-6-|
E-------4-4-4-0-0-0-4-4-4-4-|

e-4-4-4-4-4-4-0-0-0-4-4-4-4-|
B-5-5-5-4-4-4-0-0-0-4-4-4-4-|
G-6-6-6-4-4-4-1-1-1-4-4-4-4-|
D-6-6-6-6-6-6-2-2-2-6-6-6-6-|
A-4-4-4-6-6-6-2-2-2-6-6-6-6-|
E-------4-4-4-0-0-0-4-4-4-4-|

e-4-4-4-4-4-4-0-0-0-4-4-4-4-|
B-5-5-5-4-4-4-0-0-0-4-4-4-4-|
G-6-6-6-4-4-4-1-1-1-4-4-4-4-|
D-6-6-6-6-6-6-2-2-2-6-6-6-6-|
A-4-4-4-6-6-6-2-2-2-6-6-6-6-|
E-------4-4-4-0-0-0-4-4-4-4-|

Break

e-5-5-5-0-0-0-2-2-2-4-4-4-5-5-5-5-4-4-4-5-5-5-|
B-5-5-5-0-0-0-2-2-2-4-4-4-5-5-5-5-4-4-4-5-5-5-|
G-6-6-6-1-1-1-3-3-3-4-4-4-6-6-6-6-4-4-4-6-6-6-|
D-7-7-7-2-2-2-4-4-4-6-6-6-7-7-7-7-6-6-6-7-7-7-|
A-7-7-7-2-2-2-4-4-4-6-6-6-7-7-7-7-6-6-6-7-7-7-|
E-5-5-5-0-0-0-2-2-2-4-4-4-5-5-5-5-4-4-4-5-5-5-|

e-5-5-5-0-0-0-2-2-2-4-4-4-|
B-5-5-5-0-0-0-2-2-2-4-4-4-|
G-6-6-6-1-1-1-3-3-3-4-4-4-|
D-7-7-7-2-2-2-4-4-4-6-6-6-|
A-7-7-7-2-2-2-4-4-4-6-6-6-|
E-5-5-5-0-0-0-2-2-2-4-4-4-|

e-5-5-5-5-4-4-4-4-4-5-5-5-5-4-4-4-4-4-|
B-5-5-5-5-4-4-4-4-4-5-5-5-5-4-4-4-4-4-|
G-6-6-6-6-4-4-4-4-4-6-6-6-6-4-4-4-4-4-|
D-7-7-7-7-6-6-6-6-6-7-7-7-7-6-6-6-6-6-|
A-7-7-7-7-6-6-6-6-6-7-7-7-7-6-6-6-6-6-|
E-5-5-5-5-4-4-4-4-4-5-5-5-5-4-4-4-4-4-|

Verse 3
goof around C#m G#m A E G#m

Bridge
goof around with A F#m B G#m

Chorus
e-4-4-4-4-4-4-0-0-0-4-4-4-4-|
B-5-5-5-4-4-4-0-0-0-4-4-4-4-|
G-6-6-6-4-4-4-1-1-1-4-4-4-4-|
D-6-6-6-6-6-6-2-2-2-6-6-6-6-|
A-4-4-4-6-6-6-2-2-2-6-6-6-6-|
E-------4-4-4-0-0-0-4-4-4-4-|

e-4-4-4-4-4-4-0-0-0-4-4-4-4-|
B-5-5-5-4-4-4-0-0-0-4-4-4-4-|
G-6-6-6-4-4-4-1-1-1-4-4-4-4-|
D-6-6-6-6-6-6-2-2-2-6-6-6-6-|
A-4-4-4-6-6-6-2-2-2-6-6-6-6-|
E-------4-4-4-0-0-0-4-4-4-4-|

e-4-4-4-4-4-4-0-0-0-4-4-4-4-|
B-5-5-5-4-4-4-0-0-0-4-4-4-4-|
G-6-6-6-4-4-4-1-1-1-4-4-4-4-|
D-6-6-6-6-6-6-2-2-2-6-6-6-6-|
A-4-4-4-6-6-6-2-2-2-6-6-6-6-|
E-------4-4-4-0-0-0-4-4-4-4-|

e-4-4-4-4-4-4-0-0-0-4-4-4-4-|
B-5-5-5-4-4-4-0-0-0-4-4-4-4-|
G-6-6-6-4-4-4-1-1-1-4-4-4-4-|
D-6-6-6-6-6-6-2-2-2-6-6-6-6-|
A-4-4-4-6-6-6-2-2-2-6-6-6-6-|
E-------4-4-4-0-0-0-4-4-4-4-|

Chorus
e-4-4-4-4-4-4-0-0-0-4-4-4-4-|
B-5-5-5-4-4-4-0-0-0-4-4-4-4-|
G-6-6-6-4-4-4-1-1-1-4-4-4-4-|
D-6-6-6-6-6-6-2-2-2-6-6-6-6-|
A-4-4-4-6-6-6-2-2-2-6-6-6-6-|
E-------4-4-4-0-0-0-4-4-4-4-|

e-4-4-4-4-4-4-0-0-0-4-4-4-4-|
B-5-5-5-4-4-4-0-0-0-4-4-4-4-|
G-6-6-6-4-4-4-1-1-1-4-4-4-4-|
D-6-6-6-6-6-6-2-2-2-6-6-6-6-|
A-4-4-4-6-6-6-2-2-2-6-6-6-6-|
E-------4-4-4-0-0-0-4-4-4-4-|

e-4-4-4-4-4-4-0-0-0-4-4-4-4-|
B-5-5-5-4-4-4-0-0-0-4-4-4-4-|
G-6-6-6-4-4-4-1-1-1-4-4-4-4-|
D-6-6-6-6-6-6-2-2-2-6-6-6-6-|
A-4-4-4-6-6-6-2-2-2-6-6-6-6-|
E-------4-4-4-0-0-0-4-4-4-4-|

e-4-4-4-4-4-4-0-0-0-4-4-4-4-|
B-5-5-5-4-4-4-0-0-0-4-4-4-4-|
G-6-6-6-4-4-4-1-1-1-4-4-4-4-|
D-6-6-6-6-6-6-2-2-2-6-6-6-6-|
A-4-4-4-6-6-6-2-2-2-6-6-6-6-|
E-------4-4-4-0-0-0-4-4-4-4-|

Outro

e-9--------9--------9-------------9-------9-|
B-9--------9--------9-------------9-------9-|
G-9-9-11-9-9-9-11-9-9-9-11-9----9-9-9-11b-9-|
D----------------------------11-------------|
A-------------------------------------------|
E-------------------------------------------|

The world seems out of touch now

I donít get out so much

I donít feel the same

In these bones anymore

My heels are all worn down

My loyalties are torn

Iím finding different paths now

I never saw before

And it hurts less every day

The paths lead me away

Lead me away from those

Blood Thirsty Bastards

Making plans for no one

But themselves

In this world of disaster

I just need someone

For myself

All the sycophants and vampires

Well I packed them off to hell

Oh Iíve been up for days now

I hope no one can tell

I do my bit oh yes

To cleanse my hands from lies

Im feeding up the zombies

Hatched from their own eyes

And from these eyes

The weary eyes-cum shadows

Of a very different man

Blood thirsty bastards making plans for no one

but their own

I got to be my own master

get away from these braggards, tricksters, foolish clones

Oh look at how they laugh at you now

What did you do to make this bad become true

For heavens sake

such a silly mistake

Youíre a legend in your mind

But a rumour in your room

They all followed me down here

To an alleys dirty end

Oh I had nothing to give them

I just thought they were my friends

Doesnt matter now

Iím angry anyhow

So its the best way I can deal with

Blood thirsty bastards

making plans for no one

But their kind

Only now do I see it

I know I donít need it, no

I pay them no mind

Blood thirsty bastards making plans for no one

But themselves

In this world of disaster

I just need someone

To myself


This one isnt perfect but any corrections PM me.

Gentry Cove

Carl's Parts

Intro

e------|
B------|
G-5--4-|
D-5--4-|
A-3--2-|
E------|

e-7------7-5-----7-------7-5-----|
B---8-8-8----8-5---8-8-8-----8-5-|
G--------------------------------|
D--------------------------------|
A--------------------------------|
E--------------------------------|

e-10-10-10-10-10-10-9-9-7-10-10-10-10-10-10-9-9-7-|
B-------------------------------------------------|
G-------------------------------------------------|
D-------------------------------------------------|
A-------------------------------------------------|
E-------------------------------------------------|

Verse 1

e-7------7-5-----7-------7-5-----|
B---8-8-8----8-5---8-8-8-----8-5-|
G--------------------------------|
D--------------------------------|
A--------------------------------|
E--------------------------------|

e-10-10-10-10-10-10-9-9-7-10-10-10-10-10-10-9-9-7-|
B-------------------------------------------------|
G-------------------------------------------------|
D-------------------------------------------------|
A-------------------------------------------------|
E-------------------------------------------------|
                * * * * * *
e-x-x-x-x-x-x-x-7-7-7-7-7-7-|
B-x-x-x-x-x-x-x-7-7-7-7-7-7-|
G-x-x-x-x-x-x-x-7-7-7-7-7-7-|
D-x-x-x-x-x-x-x-7-7-7-7-7-7-|
A-x-x-x-x-x-x-x-7-7-7-7-7-7-|
E-x-x-x-x-x-x-x-7-7-7-7-7-7-|
                * * * * * *
e-x-x-x-x-x-x-x-7-7-7-7-7-7-|
B-x-x-x-x-x-x-x-7-7-7-7-7-7-|
G-x-x-x-x-x-x-x-7-7-7-7-7-7-|
D-x-x-x-x-x-x-x-7-7-7-7-7-7-|
A-x-x-x-x-x-x-x-7-7-7-7-7-7-|
E-x-x-x-x-x-x-x-7-7-7-7-7-7-|

Chorus

e-------------------------------------------------|
B-------------------------------------------------|
G-7-7-7-7-7-7-6-6-6-6-6-6-7-7-7-7-7-7-9-9-9-9-9-9-|
D-7-7-7-7-7-7-6-6-6-6-6-6-7-7-7-7-7-7-9-9-9-9-9-9-|
A-5-5-5-5-5-5-4-4-4-4-4-4-5-5-5-5-5-5-7-7-7-7-7-7-|
E-------------------------------------------------|

Post Chorus

e-7------7-5-----7-------7-5-----|
B---8-8-8----8-5---8-8-8-----8-5-|
G--------------------------------|
D--------------------------------|
A--------------------------------|
E--------------------------------|

e-10-10-10-10-10-10-9-9-7-10-10-10-10-10-10-9-9-7-|
B-------------------------------------------------|
G-------------------------------------------------|
D-------------------------------------------------|
A-------------------------------------------------|
E-------------------------------------------------|

Verse
                * * * * * *
e-x-x-x-x-x-x-x-7-7-7-7-7-7-|
B-x-x-x-x-x-x-x-7-7-7-7-7-7-|
G-x-x-x-x-x-x-x-7-7-7-7-7-7-|
D-x-x-x-x-x-x-x-7-7-7-7-7-7-|
A-x-x-x-x-x-x-x-7-7-7-7-7-7-|
E-x-x-x-x-x-x-x-7-7-7-7-7-7-|
                * * * * * *
e-x-x-x-x-x-x-x-7-7-7-7-7-7-|
B-x-x-x-x-x-x-x-7-7-7-7-7-7-|
G-x-x-x-x-x-x-x-7-7-7-7-7-7-|
D-x-x-x-x-x-x-x-7-7-7-7-7-7-|
A-x-x-x-x-x-x-x-7-7-7-7-7-7-|
E-x-x-x-x-x-x-x-7-7-7-7-7-7-|

Chorus

e-------------------------------------------------|
B-------------------------------------------------|
G-7-7-7-7-7-7-6-6-6-6-6-6-7-7-7-7-7-7-9-9-9-9-9-9-|
D-7-7-7-7-7-7-6-6-6-6-6-6-7-7-7-7-7-7-9-9-9-9-9-9-|
A-5-5-5-5-5-5-4-4-4-4-4-4-5-5-5-5-5-5-7-7-7-7-7-7-|
E-------------------------------------------------|

e-------------------------------------------------|
B-------------------------------------------------|
G-7-7-7-7-7-7-6-6-6-6-6-6-7-7-7-7-7-7-9-9-9-9-9-9-|
D-7-7-7-7-7-7-6-6-6-6-6-6-7-7-7-7-7-7-9-9-9-9-9-9-|
A-5-5-5-5-5-5-4-4-4-4-4-4-5-5-5-5-5-5-7-7-7-7-7-7-|
E-------------------------------------------------|

Break

e---5-----5-----|
B---7-7h8---8-7-|
G---7-----------|
D---7-----------| X8
A-5-------------|
E---------------|

Verse 3

e-7------7-5-----7-------7-5-----|
B---8-8-8----8-5---8-8-8-----8-5-|
G--------------------------------|
D--------------------------------|
A--------------------------------|
E--------------------------------|

e-10-10-10-10-10-10-9-9-7-10-10-10-10-10-10-9-9-7-|
B-------------------------------------------------|
G-------------------------------------------------|
D-------------------------------------------------|
A-------------------------------------------------|
E-------------------------------------------------|
                * * * * * *
e-x-x-x-x-x-x-x-7-7-7-7-7-7-|
B-x-x-x-x-x-x-x-7-7-7-7-7-7-|
G-x-x-x-x-x-x-x-7-7-7-7-7-7-|
D-x-x-x-x-x-x-x-7-7-7-7-7-7-|
A-x-x-x-x-x-x-x-7-7-7-7-7-7-|
E-x-x-x-x-x-x-x-7-7-7-7-7-7-|
                * * * * * *
e-x-x-x-x-x-x-x-7-7-7-7-7-7-|
B-x-x-x-x-x-x-x-7-7-7-7-7-7-|
G-x-x-x-x-x-x-x-7-7-7-7-7-7-|
D-x-x-x-x-x-x-x-7-7-7-7-7-7-|
A-x-x-x-x-x-x-x-7-7-7-7-7-7-|
E-x-x-x-x-x-x-x-7-7-7-7-7-7-|


Chorus

e-------------------------------------------------|
B-------------------------------------------------|
G-7-7-7-7-7-7-6-6-6-6-6-6-7-7-7-7-7-7-9-9-9-9-9-9-|
D-7-7-7-7-7-7-6-6-6-6-6-6-7-7-7-7-7-7-9-9-9-9-9-9-|
A-5-5-5-5-5-5-4-4-4-4-4-4-5-5-5-5-5-5-7-7-7-7-7-7-|
E-------------------------------------------------|

Outro
  B
e-2-2-2-2-2-2-2-|
B-4-4-4-4-4-4-4-|
G-4-4-4-4-4-4-4-|
D-4-4-4-4-4-4-4-| X8
A-2-2-2-2-2-2-2-|
E---------------|

Anthony's Parts

Intro

e------|
B------|
G-5--4-|
D-5--4-|
A-3--2-|
E------|

e-7-7-7-7-7-7-7-7-7-7-7-7-7-7-7-7-|
B-9-9-7-7-9-9-7-7-9-9-7-7-9-9-7-7-|
G-9-9-8-8-9-9-8-8-9-9-8-8-9-9-8-8-|
D-9-9-9-9-9-9-9-9-9-9-9-9-9-9-9-9-|
A-7-7-9-9-7-7-9-9-7-7-9-9-7-7-9-9-|
E-----7-7-----7-7-----7-7-----7-7-|

Verse 1

e-7-7-7-7-7-7-7-7-7-7-7-7-7-7-7-7-|
B-9-9-7-7-9-9-7-7-9-9-7-7-9-9-7-7-|
G-9-9-8-8-9-9-8-8-9-9-8-8-9-9-8-8-|
D-9-9-9-9-9-9-9-9-9-9-9-9-9-9-9-9-|
A-7-7-9-9-7-7-9-9-7-7-9-9-7-7-9-9-|
E-----7-7-----7-7-----7-7-----7-7-|

e-7-7-7-7-7-7-7-7-7-7-7-7-7-7-7-7-|
B-9-9-7-7-9-9-7-7-9-9-7-7-9-9-7-7-|
G-9-9-8-8-9-9-8-8-9-9-8-8-9-9-8-8-|
D-9-9-9-9-9-9-9-9-9-9-9-9-9-9-9-9-|
A-7-7-9-9-7-7-9-9-7-7-9-9-7-7-9-9-|
E-----7-7-----7-7-----7-7-----7-7-|

Chorus

e-------------------------------------------------|
B-------------------------------------------------|
G-7-7-7-7-7-7-6-6-6-6-6-6-7-7-7-7-7-7-9-9-9-9-9-9-|
D-7-7-7-7-7-7-6-6-6-6-6-6-7-7-7-7-7-7-9-9-9-9-9-9-|
A-5-5-5-5-5-5-4-4-4-4-4-4-5-5-5-5-5-5-7-7-7-7-7-7-|
E-------------------------------------------------|

Intro (Carl)


Verse 2

e-7-7-7-7-7-7-7-7-7-7-7-7-7-7-7-7-|
B-9-9-7-7-9-9-7-7-9-9-7-7-9-9-7-7-|
G-9-9-8-8-9-9-8-8-9-9-8-8-9-9-8-8-|
D-9-9-9-9-9-9-9-9-9-9-9-9-9-9-9-9-|
A-7-7-9-9-7-7-9-9-7-7-9-9-7-7-9-9-|
E-----7-7-----7-7-----7-7-----7-7-|

Chorus

e-------------------------------------------------|
B-------------------------------------------------|
G-7-7-7-7-7-7-6-6-6-6-6-6-7-7-7-7-7-7-9-9-9-9-9-9-|
D-7-7-7-7-7-7-6-6-6-6-6-6-7-7-7-7-7-7-9-9-9-9-9-9-|
A-5-5-5-5-5-5-4-4-4-4-4-4-5-5-5-5-5-5-7-7-7-7-7-7-|
E-------------------------------------------------|

e-------------------------------------------------|
B-------------------------------------------------|
G-7-7-7-7-7-7-6-6-6-6-6-6-7-7-7-7-7-7-9-9-9-9-9-9-|
D-7-7-7-7-7-7-6-6-6-6-6-6-7-7-7-7-7-7-9-9-9-9-9-9-|
A-5-5-5-5-5-5-4-4-4-4-4-4-5-5-5-5-5-5-7-7-7-7-7-7-|
E-------------------------------------------------|

Break

e---5-----5-----|
B---7-7h8---8-7-|
G---7-----------|
D---7-----------| X8
A-5-------------|
E---------------|

Verse 3

e-7-7-7-7-7-7-7-7-7-7-7-7-7-7-7-7-|
B-9-9-7-7-9-9-7-7-9-9-7-7-9-9-7-7-|
G-9-9-8-8-9-9-8-8-9-9-8-8-9-9-8-8-|
D-9-9-9-9-9-9-9-9-9-9-9-9-9-9-9-9-|
A-7-7-9-9-7-7-9-9-7-7-9-9-7-7-9-9-|
E-----7-7-----7-7-----7-7-----7-7-|

e-7-7-7-7-7-7-7-7-7-7-7-7-7-7-7-7-|
B-9-9-7-7-9-9-7-7-9-9-7-7-9-9-7-7-|
G-9-9-8-8-9-9-8-8-9-9-8-8-9-9-8-8-|
D-9-9-9-9-9-9-9-9-9-9-9-9-9-9-9-9-|
A-7-7-9-9-7-7-9-9-7-7-9-9-7-7-9-9-|
E-----7-7-----7-7-----7-7-----7-7-|

Chorus

e-------------------------------------------------|
B-------------------------------------------------|
G-7-7-7-7-7-7-6-6-6-6-6-6-7-7-7-7-7-7-9-9-9-9-9-9-|
D-7-7-7-7-7-7-6-6-6-6-6-6-7-7-7-7-7-7-9-9-9-9-9-9-|
A-5-5-5-5-5-5-4-4-4-4-4-4-5-5-5-5-5-5-7-7-7-7-7-7-|
E-------------------------------------------------|

Outro
  B
e-2-2-2-2-2-2-2-|
B-4-4-4-4-4-4-4-|
G-4-4-4-4-4-4-4-|
D-4-4-4-4-4-4-4-| X8
A-2-2-2-2-2-2-2-|
E---------------|

Run they said to a promised land

Run and find us a helping hand

Donít come back till the sun is gone

Donít come back till the war is won

We all set out with our hearts in hand

A cold wind covered up a line in the sand

All so young

Nothing to lose

Pieces of silver and a dead mans shoes

And oh do you know what Iím saying

Strike a light to guide us

Somewhere

Tempers swell our worlds collide

Arrows from above and the salt in our eyes

Then as the sky began to bruise

We all sought shelter from the breaking news

Oh did I ever show you

All the great memorials, all the factory floors

And oh though you know I donít know you

Now that were here

Letís make them proud

On and on and on and on and on and on we go

Traipsing over bridges

Over corpses down below

And all the while we could have smiled

For one thing on our minds

The very thing you strive for

Is the thing that makes you blind


Run they said to a promised land

Run and find us a helping hand

Donít come back till the sun is gone

Donít come back till the war is won

Tempers high stories told

flood the weedland nothing at all

and at last the day was saved

the flowers pouring from a dead friends grave

and oh, if I still don't know you

Maybe Iíll show you

If youíve eyes to see

And so farewell

And so farewell

And so farewell

And so farewell to it


Not sure on this one some parts are wrong especially note the "Break" corrections PM me.


Gin and Milk

Carl's Parts

Intro

e-------------    ---------------------------------|
B-------7-6-5-    -5-5-5-5-5-5-5-5-7-7-7-7-7-7-7-7-|
G-------7-6-5-    ---------------------------------|
D-7-7-7------- X8 ---------------------------------|
A-------------    ---------------------------------|
E-------------    ---------------------------------|

e--------------------5-5-5-5-5-5-5-5-5--|
B--8-8-8-8-8-8-8-8-8--------------------|
G---------------------------------------|
D---------------------------------------|
A---------------------------------------|
E---------------------------------------|

Verse 1

e-5-5-5-    -1-1-1-1-1-0-1-1-1-1-1-1-1-1-|
B-7-7-5-    -1-1-1-1-1-0-1-1-1-1-1-1-1-1-|
G-7-7-6-    -2-2-2-2-2-1-2-2-2-2-2-2-2-2-|
D-7-7-7- X8 -3-3-3-3-3-2-3-3-3-3-3-3-3-3-|
A-5-5-7-    -3-3-3-3-3-2-3-3-3-3-3-3-3-3-|
E-----5-    -1-1-1-1-1-0-1-1-1-1-1-1-1-1-|

e-5-5-5-0-0-0-0-0-0-0-0-|
B-7-7-5-0-0-0-0-0-0-0-0-|
G-7-7-6-1-1-1-1-1-1-1-1-|
D-7-7-7-2-2-2-2-2-2-2-2-|
A-5-5-7-2-2-2-2-2-2-2-2-|
E-----5-0-0-0-0-0-0-0-0-|

e-5-5-5-    -1-1-1-1-1-0-1-1-1-1-1-1-1-1-|
B-7-7-5-    -1-1-1-1-1-0-1-1-1-1-1-1-1-1-|
G-7-7-6-    -2-2-2-2-2-1-2-2-2-2-2-2-2-2-|
D-7-7-7- X8 -3-3-3-3-3-2-3-3-3-3-3-3-3-3-|
A-5-5-7-    -3-3-3-3-3-2-3-3-3-3-3-3-3-3-|
E-----5-    -1-1-1-1-1-0-1-1-1-1-1-1-1-1-|

e-5-5-5-0-0-0-0-0-0-0-0-0-0-0-0-0-0-0-0-|
B-7-7-5-0-0-0-0-0-0-0-0-0-0-0-0-0-0-0-0-|
G-7-7-6-1-1-1-1-1-1-1-1-1-1-1-1-1-1-1-1-|
D-7-7-7-2-2-2-2-2-2-2-2-2-2-2-2-2-2-2-2-|
A-5-5-7-2-2-2-2-2-2-2-2-2-2-2-2-2-2-2-2-|
E-----5-0-0-0-0-0-0-0-0-0-0-0-0-0-0-0-0-|

Chorus

e-4-4-4-4-4-4-5-5-5-5-5-5-|
B-5-5-5-5-5-5-5-5-5-5-5-5-|
G-6-6-6-6-6-6-5-5-5-5-5-5-|
D-6-6-6-6-6-6-7-7-7-7-7-7-|
A-4-4-4-4-4-4-7-7-7-7-7-7-|
E-------------5-5-5-5-5-5-|

e-4-4-4-4-4-4-5-5-5-5-5-5-|
B-5-5-5-5-5-5-5-5-5-5-5-5-|
G-6-6-6-6-6-6-5-5-5-5-5-5-|
D-6-6-6-6-6-6-7-7-7-7-7-7-|
A-4-4-4-4-4-4-7-7-7-7-7-7-|
E-------------5-5-5-5-5-5-|

e-4-4-4-4-4-4-5-5-5-5-5-5-|
B-5-5-5-5-5-5-5-5-5-5-5-5-|
G-6-6-6-6-6-6-5-5-5-5-5-5-|
D-6-6-6-6-6-6-7-7-7-7-7-7-|
A-4-4-4-4-4-4-7-7-7-7-7-7-|
E-------------5-5-5-5-5-5-|

e-2-2-2-2-2-2-2-2-2-2-2-2-|
B-2-2-2-2-2-4-4-4-4-4-4-4-|
G-3-3-3-3-3-4-4-4-4-4-4-4-|
D-4-4-4-4-4-4-4-4-4-4-4-4-|
A-4-4-4-4-4-2-2-2-2-2-2-2-|
E-2-2-2-2-2---------------|

e-2-2-2-2-2-2-2-2-2-2-2-2-|
B-2-2-2-2-2-4-4-4-4-4-4-4-|
G-3-3-3-3-3-4-4-4-4-4-4-4-|
D-4-4-4-4-4-4-4-4-4-4-4-4-|
A-4-4-4-4-4-2-2-2-2-2-2-2-|
E-2-2-2-2-2---------------|

Post Chorus

e-------------|
B-------7-6-5-|
G-------7-6-5-|
D-7-7-7-------| X4
A-------------|
E-------------|

Verse 2

e-5-5-5-    -1-1-1-1-1-0-1-1-1-1-1-1-1-1-|
B-7-7-5-    -1-1-1-1-1-0-1-1-1-1-1-1-1-1-|
G-7-7-6-    -2-2-2-2-2-1-2-2-2-2-2-2-2-2-|
D-7-7-7- X8 -3-3-3-3-3-2-3-3-3-3-3-3-3-3-|
A-5-5-7-    -3-3-3-3-3-2-3-3-3-3-3-3-3-3-|
E-----5-    -1-1-1-1-1-0-1-1-1-1-1-1-1-1-|

e-5-5-5-0-0-0-0-0-0-0-0-|
B-7-7-5-0-0-0-0-0-0-0-0-|
G-7-7-6-1-1-1-1-1-1-1-1-|
D-7-7-7-2-2-2-2-2-2-2-2-|
A-5-5-7-2-2-2-2-2-2-2-2-|
E-----5-0-0-0-0-0-0-0-0-|

Chorus

e-4-4-4-4-4-4-5-5-5-5-5-5-|
B-5-5-5-5-5-5-5-5-5-5-5-5-|
G-6-6-6-6-6-6-5-5-5-5-5-5-|
D-6-6-6-6-6-6-7-7-7-7-7-7-|
A-4-4-4-4-4-4-7-7-7-7-7-7-|
E-------------5-5-5-5-5-5-|

e-4-4-4-4-4-4-5-5-5-5-5-5-|
B-5-5-5-5-5-5-5-5-5-5-5-5-|
G-6-6-6-6-6-6-5-5-5-5-5-5-|
D-6-6-6-6-6-6-7-7-7-7-7-7-|
A-4-4-4-4-4-4-7-7-7-7-7-7-|
E-------------5-5-5-5-5-5-|

e-4-4-4-4-4-4-5-5-5-5-5-5-|
B-5-5-5-5-5-5-5-5-5-5-5-5-|
G-6-6-6-6-6-6-5-5-5-5-5-5-|
D-6-6-6-6-6-6-7-7-7-7-7-7-|
A-4-4-4-4-4-4-7-7-7-7-7-7-|
E-------------5-5-5-5-5-5-|

e-2-2-2-2-2-2-2-2-2-2-2-2-|
B-2-2-2-2-2-4-4-4-4-4-4-4-|
G-3-3-3-3-3-4-4-4-4-4-4-4-|
D-4-4-4-4-4-4-4-4-4-4-4-4-|
A-4-4-4-4-4-2-2-2-2-2-2-2-|
E-2-2-2-2-2---------------|

e-2-2-2-2-2-2-2-2-2-2-2-2-|
B-2-2-2-2-2-4-4-4-4-4-4-4-|
G-3-3-3-3-3-4-4-4-4-4-4-4-|
D-4-4-4-4-4-4-4-4-4-4-4-4-|
A-4-4-4-4-4-2-2-2-2-2-2-2-|
E-2-2-2-2-2---------------|

Solo

e-------------------    -------------|
B-10-12-13-12-13-10-    -------------|
G-------------------    -9-9-9-9-9-9-|
D------------------- X3 -------------|
A-------------------    -------------|
E-------------------    -------------|

e-------------------    -------------|
B-10-12-13-12-13-10-    -------------|
G-------------------    -9-9-9-9-9-9-|
D------------------- X3 -------------|
A-------------------    -------------|
E-------------------    -------------|

e-------------------    -------------|
B-10-12-13-12-13-10-    -------------|
G-------------------    -9-9-9-9-9-9-|
D------------------- X3 -------------|
A-------------------    -------------|
E-------------------    -------------|

e-------------------    -------------|
B-10-12-13-12-13-10-    -------------|
G-------------------    -9-9-9-9-9-9-|
D------------------- X3 -------------|
A-------------------    -------------|
E-------------------    -------------|

e-------------------------------------------------|
B-17-17-17-17-17-17-17-17-19-19-19-19-19-19-19-19-|
G-------------------------------------------------|
D-------------------------------------------------|
A-------------------------------------------------|
E-------------------------------------------------|

e-15-15-15-15-15-15-15-15-17-17-17-17-17-17-17-17-|
B-------------------------------------------------|
G-------------------------------------------------|
D-------------------------------------------------|
A-------------------------------------------------|
E-------------------------------------------------|

e-18-18-18-18-18-18-18-18-19-19-19-19-19-19-19-19-|
B-------------------------------------------------|
G-------------------------------------------------|
D-------------------------------------------------|
A-------------------------------------------------|
E-------------------------------------------------|

e-20-20-20-20-20-20-20-20-21b-21b-21b-21b-21b-21b-21b-21b-21b-|
B-------------------------------------------------------------|
G-------------------------------------------------------------|
D-------------------------------------------------------------|
A-------------------------------------------------------------|
E-------------------------------------------------------------|

Verse 3

e-5-5-5-    -1-1-1-1-1-0-1-1-1-1-1-1-1-1-|
B-7-7-5-    -1-1-1-1-1-0-1-1-1-1-1-1-1-1-|
G-7-7-6-    -2-2-2-2-2-1-2-2-2-2-2-2-2-2-|
D-7-7-7- X8 -3-3-3-3-3-2-3-3-3-3-3-3-3-3-|
A-5-5-7-    -3-3-3-3-3-2-3-3-3-3-3-3-3-3-|
E-----5-    -1-1-1-1-1-0-1-1-1-1-1-1-1-1-|

e-5-5-5-0-0-0-0-0-0-0-0-|
B-7-7-5-0-0-0-0-0-0-0-0-|
G-7-7-6-1-1-1-1-1-1-1-1-|
D-7-7-7-2-2-2-2-2-2-2-2-|
A-5-5-7-2-2-2-2-2-2-2-2-|
E-----5-0-0-0-0-0-0-0-0-|

Chorus

e-4-4-4-4-4-4-5-5-5-5-5-5-|
B-5-5-5-5-5-5-5-5-5-5-5-5-|
G-6-6-6-6-6-6-5-5-5-5-5-5-|
D-6-6-6-6-6-6-7-7-7-7-7-7-|
A-4-4-4-4-4-4-7-7-7-7-7-7-|
E-------------5-5-5-5-5-5-|

e-4-4-4-4-4-4-5-5-5-5-5-5-|
B-5-5-5-5-5-5-5-5-5-5-5-5-|
G-6-6-6-6-6-6-5-5-5-5-5-5-|
D-6-6-6-6-6-6-7-7-7-7-7-7-|
A-4-4-4-4-4-4-7-7-7-7-7-7-|
E-------------5-5-5-5-5-5-|

e-4-4-4-4-4-4-5-5-5-5-5-5-|
B-5-5-5-5-5-5-5-5-5-5-5-5-|
G-6-6-6-6-6-6-5-5-5-5-5-5-|
D-6-6-6-6-6-6-7-7-7-7-7-7-|
A-4-4-4-4-4-4-7-7-7-7-7-7-|
E-------------5-5-5-5-5-5-|

e-2-2-2-2-2-2-2-2-2-2-2-2-|
B-2-2-2-2-2-4-4-4-4-4-4-4-|
G-3-3-3-3-3-4-4-4-4-4-4-4-|
D-4-4-4-4-4-4-4-4-4-4-4-4-|
A-4-4-4-4-4-2-2-2-2-2-2-2-|
E-2-2-2-2-2---------------|

e-2-2-2-2-2-2-2-2-2-2-2-2-|
B-2-2-2-2-2-4-4-4-4-4-4-4-|
G-3-3-3-3-3-4-4-4-4-4-4-4-|
D-4-4-4-4-4-4-4-4-4-4-4-4-|
A-4-4-4-4-4-2-2-2-2-2-2-2-|
E-2-2-2-2-2---------------|

e-4-4-4-4-4-4-5-5-5-5-5-5-|
B-5-5-5-5-5-5-5-5-5-5-5-5-|
G-6-6-6-6-6-6-5-5-5-5-5-5-|
D-6-6-6-6-6-6-7-7-7-7-7-7-|
A-4-4-4-4-4-4-7-7-7-7-7-7-|
E-------------5-5-5-5-5-5-|

e-4-4-4-4-4-4-5-5-5-5-5-5-|
B-5-5-5-5-5-5-5-5-5-5-5-5-|
G-6-6-6-6-6-6-5-5-5-5-5-5-|
D-6-6-6-6-6-6-7-7-7-7-7-7-|
A-4-4-4-4-4-4-7-7-7-7-7-7-|
E-------------5-5-5-5-5-5-|

e-4-4-4-4-4-4-5-5-5-5-5-5-|
B-5-5-5-5-5-5-5-5-5-5-5-5-|
G-6-6-6-6-6-6-5-5-5-5-5-5-|
D-6-6-6-6-6-6-7-7-7-7-7-7-|
A-4-4-4-4-4-4-7-7-7-7-7-7-|
E-------------5-5-5-5-5-5-|

e-2-2-2-2-2-2-2-2-2-2-2-2-|
B-2-2-2-2-2-4-4-4-4-4-4-4-|
G-3-3-3-3-3-4-4-4-4-4-4-4-|
D-4-4-4-4-4-4-4-4-4-4-4-4-|
A-4-4-4-4-4-2-2-2-2-2-2-2-|
E-2-2-2-2-2---------------|

e-2-2-2-2-2-2-2-2-2-2-2-2-|
B-2-2-2-2-2-4-4-4-4-4-4-4-|
G-3-3-3-3-3-4-4-4-4-4-4-4-|
D-4-4-4-4-4-4-4-4-4-4-4-4-|
A-4-4-4-4-4-2-2-2-2-2-2-2-|
E-2-2-2-2-2---------------|

Outro

e-------------|
B-------7-6-5-|
G-------7-6-5-|
D-7-7-7-------| X4
A-------------|
E-------------|


Anthony's Parts

Intro

e-5-5-x-x-    ---------------------------------|
B-5-5-x-x-    -5-5-5-5-5-5-5-5-7-7-7-7-7-7-7-7-|
G-6-6-x-x-    ---------------------------------|
D-7-7-x-x- X8 ---------------------------------|
A-7-7-x-x-    ---------------------------------|
E-5-5-x-x-    ---------------------------------|

e--------------------5-5-5-5-5-5-5-5-5-|
B--8-8-8-8-8-8-8-8-8-------------------|
G--------------------------------------|
D--------------------------------------|
A--------------------------------------|
E--------------------------------------|

Verse 1

e-5-5-5-    -1-1-1-1-1-0-1-1-1-1-1-1-1-1-|
B-7-7-5-    -1-1-1-1-1-0-1-1-1-1-1-1-1-1-|
G-7-7-6-    -2-2-2-2-2-1-2-2-2-2-2-2-2-2-|
D-7-7-7- X8 -3-3-3-3-3-2-3-3-3-3-3-3-3-3-|
A-5-5-7-    -3-3-3-3-3-2-3-3-3-3-3-3-3-3-|
E-----5-    -1-1-1-1-1-0-1-1-1-1-1-1-1-1-|

e-5-5-5-0-0-0-0-0-0-0-0-|
B-7-7-5-0-0-0-0-0-0-0-0-|
G-7-7-6-1-1-1-1-1-1-1-1-|
D-7-7-7-2-2-2-2-2-2-2-2-|
A-5-5-7-2-2-2-2-2-2-2-2-|
E-----5-0-0-0-0-0-0-0-0-|

e-5-5-5-    -1-1-1-1-1-0-1-1-1-1-1-1-1-1-|
B-7-7-5-    -1-1-1-1-1-0-1-1-1-1-1-1-1-1-|
G-7-7-6-    -2-2-2-2-2-1-2-2-2-2-2-2-2-2-|
D-7-7-7- X8 -3-3-3-3-3-2-3-3-3-3-3-3-3-3-|
A-5-5-7-    -3-3-3-3-3-2-3-3-3-3-3-3-3-3-|
E-----5-    -1-1-1-1-1-0-1-1-1-1-1-1-1-1-|

e-5-5-5-0-0-0-0-0-0-0-0-0-0-0-0-0-0-0-0-|
B-7-7-5-0-0-0-0-0-0-0-0-0-0-0-0-0-0-0-0-|
G-7-7-6-1-1-1-1-1-1-1-1-1-1-1-1-1-1-1-1-|
D-7-7-7-2-2-2-2-2-2-2-2-2-2-2-2-2-2-2-2-|
A-5-5-7-2-2-2-2-2-2-2-2-2-2-2-2-2-2-2-2-|
E-----5-0-0-0-0-0-0-0-0-0-0-0-0-0-0-0-0-|

Chorus

e-4-4-4-4-4-4-5-5-5-5-5-5-|
B-5-5-5-5-5-5-5-5-5-5-5-5-|
G-6-6-6-6-6-6-5-5-5-5-5-5-|
D-6-6-6-6-6-6-7-7-7-7-7-7-|
A-4-4-4-4-4-4-7-7-7-7-7-7-|
E-------------5-5-5-5-5-5-|

e-4-4-4-4-4-4-5-5-5-5-5-5-|
B-5-5-5-5-5-5-5-5-5-5-5-5-|
G-6-6-6-6-6-6-5-5-5-5-5-5-|
D-6-6-6-6-6-6-7-7-7-7-7-7-|
A-4-4-4-4-4-4-7-7-7-7-7-7-|
E-------------5-5-5-5-5-5-|

e-4-4-4-4-4-4-5-5-5-5-5-5-|
B-5-5-5-5-5-5-5-5-5-5-5-5-|
G-6-6-6-6-6-6-5-5-5-5-5-5-|
D-6-6-6-6-6-6-7-7-7-7-7-7-|
A-4-4-4-4-4-4-7-7-7-7-7-7-|
E-------------5-5-5-5-5-5-|

e-2-2-2-2-2-2-2-2-2-2-2-2-|
B-2-2-2-2-2-4-4-4-4-4-4-4-|
G-3-3-3-3-3-4-4-4-4-4-4-4-|
D-4-4-4-4-4-4-4-4-4-4-4-4-|
A-4-4-4-4-4-2-2-2-2-2-2-2-|
E-2-2-2-2-2---------------|

e-2-2-2-2-2-2-2-2-2-2-2-2-|
B-2-2-2-2-2-4-4-4-4-4-4-4-|
G-3-3-3-3-3-4-4-4-4-4-4-4-|
D-4-4-4-4-4-4-4-4-4-4-4-4-|
A-4-4-4-4-4-2-2-2-2-2-2-2-|
E-2-2-2-2-2---------------|

Post Chorus

e-------------|
B-------7-6-5-|
G-------7-6-5-|
D-7-7-7-------| X4
A-------------|
E-------------|

Verse 2

e-5-5-5-    -1-1-1-1-1-0-1-1-1-1-1-1-1-1-|
B-7-7-5-    -1-1-1-1-1-0-1-1-1-1-1-1-1-1-|
G-7-7-6-    -2-2-2-2-2-1-2-2-2-2-2-2-2-2-|
D-7-7-7- X8 -3-3-3-3-3-2-3-3-3-3-3-3-3-3-|
A-5-5-7-    -3-3-3-3-3-2-3-3-3-3-3-3-3-3-|
E-----5-    -1-1-1-1-1-0-1-1-1-1-1-1-1-1-|

e-5-5-5-0-0-0-0-0-0-0-0-|
B-7-7-5-0-0-0-0-0-0-0-0-|
G-7-7-6-1-1-1-1-1-1-1-1-|
D-7-7-7-2-2-2-2-2-2-2-2-|
A-5-5-7-2-2-2-2-2-2-2-2-|
E-----5-0-0-0-0-0-0-0-0-|

Chorus

e-4-4-4-4-4-4-5-5-5-5-5-5-|
B-5-5-5-5-5-5-5-5-5-5-5-5-|
G-6-6-6-6-6-6-5-5-5-5-5-5-|
D-6-6-6-6-6-6-7-7-7-7-7-7-|
A-4-4-4-4-4-4-7-7-7-7-7-7-|
E-------------5-5-5-5-5-5-|

e-4-4-4-4-4-4-5-5-5-5-5-5-|
B-5-5-5-5-5-5-5-5-5-5-5-5-|
G-6-6-6-6-6-6-5-5-5-5-5-5-|
D-6-6-6-6-6-6-7-7-7-7-7-7-|
A-4-4-4-4-4-4-7-7-7-7-7-7-|
E-------------5-5-5-5-5-5-|

e-4-4-4-4-4-4-5-5-5-5-5-5-|
B-5-5-5-5-5-5-5-5-5-5-5-5-|
G-6-6-6-6-6-6-5-5-5-5-5-5-|
D-6-6-6-6-6-6-7-7-7-7-7-7-|
A-4-4-4-4-4-4-7-7-7-7-7-7-|
E-------------5-5-5-5-5-5-|

e-2-2-2-2-2-2-2-2-2-2-2-2-|
B-2-2-2-2-2-4-4-4-4-4-4-4-|
G-3-3-3-3-3-4-4-4-4-4-4-4-|
D-4-4-4-4-4-4-4-4-4-4-4-4-|
A-4-4-4-4-4-2-2-2-2-2-2-2-|
E-2-2-2-2-2---------------|

e-2-2-2-2-2-2-2-2-2-2-2-2-|
B-2-2-2-2-2-4-4-4-4-4-4-4-|
G-3-3-3-3-3-4-4-4-4-4-4-4-|
D-4-4-4-4-4-4-4-4-4-4-4-4-|
A-4-4-4-4-4-2-2-2-2-2-2-2-|
E-2-2-2-2-2---------------|

Verse 3

e-5-5-5-    -1-1-1-1-1-0-1-1-1-1-1-1-1-1-|
B-7-7-5-    -1-1-1-1-1-0-1-1-1-1-1-1-1-1-|
G-7-7-6-    -2-2-2-2-2-1-2-2-2-2-2-2-2-2-|
D-7-7-7- X8 -3-3-3-3-3-2-3-3-3-3-3-3-3-3-|
A-5-5-7-    -3-3-3-3-3-2-3-3-3-3-3-3-3-3-|
E-----5-    -1-1-1-1-1-0-1-1-1-1-1-1-1-1-|

e-5-5-5-0-0-0-0-0-0-0-0-|
B-7-7-5-0-0-0-0-0-0-0-0-|
G-7-7-6-1-1-1-1-1-1-1-1-|
D-7-7-7-2-2-2-2-2-2-2-2-|
A-5-5-7-2-2-2-2-2-2-2-2-|
E-----5-0-0-0-0-0-0-0-0-|


Chorus

e-4-4-4-4-4-4-5-5-5-5-5-5-|
B-5-5-5-5-5-5-5-5-5-5-5-5-|
G-6-6-6-6-6-6-5-5-5-5-5-5-|
D-6-6-6-6-6-6-7-7-7-7-7-7-|
A-4-4-4-4-4-4-7-7-7-7-7-7-|
E-------------5-5-5-5-5-5-|

e-4-4-4-4-4-4-5-5-5-5-5-5-|
B-5-5-5-5-5-5-5-5-5-5-5-5-|
G-6-6-6-6-6-6-5-5-5-5-5-5-|
D-6-6-6-6-6-6-7-7-7-7-7-7-|
A-4-4-4-4-4-4-7-7-7-7-7-7-|
E-------------5-5-5-5-5-5-|

e-4-4-4-4-4-4-5-5-5-5-5-5-|
B-5-5-5-5-5-5-5-5-5-5-5-5-|
G-6-6-6-6-6-6-5-5-5-5-5-5-|
D-6-6-6-6-6-6-7-7-7-7-7-7-|
A-4-4-4-4-4-4-7-7-7-7-7-7-|
E-------------5-5-5-5-5-5-|

e-2-2-2-2-2-2-2-2-2-2-2-2-|
B-2-2-2-2-2-4-4-4-4-4-4-4-|
G-3-3-3-3-3-4-4-4-4-4-4-4-|
D-4-4-4-4-4-4-4-4-4-4-4-4-|
A-4-4-4-4-4-2-2-2-2-2-2-2-|
E-2-2-2-2-2---------------|

e-2-2-2-2-2-2-2-2-2-2-2-2-|
B-2-2-2-2-2-4-4-4-4-4-4-4-|
G-3-3-3-3-3-4-4-4-4-4-4-4-|
D-4-4-4-4-4-4-4-4-4-4-4-4-|
A-4-4-4-4-4-2-2-2-2-2-2-2-|
E-2-2-2-2-2---------------|

e-4-4-4-4-4-4-5-5-5-5-5-5-|
B-5-5-5-5-5-5-5-5-5-5-5-5-|
G-6-6-6-6-6-6-5-5-5-5-5-5-|
D-6-6-6-6-6-6-7-7-7-7-7-7-|
A-4-4-4-4-4-4-7-7-7-7-7-7-|
E-------------5-5-5-5-5-5-|

e-4-4-4-4-4-4-5-5-5-5-5-5-|
B-5-5-5-5-5-5-5-5-5-5-5-5-|
G-6-6-6-6-6-6-5-5-5-5-5-5-|
D-6-6-6-6-6-6-7-7-7-7-7-7-|
A-4-4-4-4-4-4-7-7-7-7-7-7-|
E-------------5-5-5-5-5-5-|

e-4-4-4-4-4-4-5-5-5-5-5-5-|
B-5-5-5-5-5-5-5-5-5-5-5-5-|
G-6-6-6-6-6-6-5-5-5-5-5-5-|
D-6-6-6-6-6-6-7-7-7-7-7-7-|
A-4-4-4-4-4-4-7-7-7-7-7-7-|
E-------------5-5-5-5-5-5-|

e-2-2-2-2-2-2-2-2-2-2-2-2-|
B-2-2-2-2-2-4-4-4-4-4-4-4-|
G-3-3-3-3-3-4-4-4-4-4-4-4-|
D-4-4-4-4-4-4-4-4-4-4-4-4-|
A-4-4-4-4-4-2-2-2-2-2-2-2-|
E-2-2-2-2-2---------------|

e-2-2-2-2-2-2-2-2-2-2-2-2-|
B-2-2-2-2-2-4-4-4-4-4-4-4-|
G-3-3-3-3-3-4-4-4-4-4-4-4-|
D-4-4-4-4-4-4-4-4-4-4-4-4-|
A-4-4-4-4-4-2-2-2-2-2-2-2-|
E-2-2-2-2-2---------------|

Outro

e-5-5-x-x-|
B-5-5-x-x-|
G-6-6-x-x-|
D-7-7-x-x-| X4
A-7-7-x-x-|
E-5-5-x-x-|

Iím in to myself
On uncertain terms
I put gin in my milk
To kill all the germs
As I pray for the day
That life will return
And I pray for myself
But I never learn
No I never learn

See I really like you
But Iím nothing like you
I try really hard
But donít get so far
You get my respect
But we donít connect
Were in it together
So Iíll love you forever
I love you forever

And so it rains on
No one gives a fuck about the values I would die for
Not the faceless civil servants
You rudimentary crack whore
No one gives two fucks about the values I would kill for
Give them something to die for
Give me something to die for

You wonít really see me
I live in old movies
Cloaked tightly in sin
So they wont come in
Its like spying on cities
Through cracks in the floor
Thought I knew what the blag was
But now Iím not sure
What do I know anymore?

And no one gives a fuck
About the values I would die for
Not the baseist civil servant
The rudimentary crack whore
And no one gives two fucks
About the values I could kill for
Give them something to die for
Give me something to die for

Still Iím into myself
On uncertain terms.
I put gin in my milk
It kills all the germs
As I pray for the day
That life will return
And I pray for myself
But I never learn
No Iíll never learn

No one gives a fuck
About the values I would die for
Not the faceless civil servant
A rudimentary crack whore
No one gives two fucks
About the values I would kill for
Give me something to die for
Give me something to die for

No oneís too perturbed
About the things that I would cry for
Iíve been trying all my life
Until thereís nothing left to try for
No oneís too perturbed
About the things that I would live for
Give me something to try for
Give me something to try for

I think I have murdered a good song sorry corrections PM me.


The Enemy

Carl's Parts

Intro

Intro 1/2 point

e-x-
B-x-
G-x-
D-x-
A-x-
E-x-

Intro 3/4 point

e-------------------------------------------------------|
B-------------------------------------------------------|
G-12-12-12-12-12-12-12-12-12-12-12-12-12-12-12-12-12-12-|
D-12-12-12-12-12-12-12-12-12-12-12-12-12-12-12-12-12-12-|
A-10-10-10-10-10-10-10-10-10-10-10-10-10-10-10-10-10-10-|
E-------------------------------------------------------|

e---------|
B---------|
G-11-10-9-|
D-11-10-9-|
A--9--8-7-|
E---------|

Pre Verse

e----8----8----8----9b-b-r-5-5-x-x-5-5-x-x-5-5-x-x-5-5-x-x-|
B-8b---8b---8b---8b--------5-5-x-x-5-5-x-x-5-5-x-x-5-5-x-x-|
G--------------------------6-6-x-x-6-6-x-x-6-6-x-x-6-6-x-x-|
D--------------------------7-7-x-x-7-7-x-x-7-7-x-x-7-7-x-x-|
A--------------------------7-7-x-x-7-7-x-x-7-7-x-x-7-7-x-x-|
E--------------------------5-5-x-x-5-5-x-x-5-5-x-x-5-5-x-x-|

e----8----8----8----9b-b-r-5-5-x-x-5-5-x-x-5-5-x-x-5-5-x-x-|
B-8b---8b---8b---8b--------5-5-x-x-5-5-x-x-5-5-x-x-5-5-x-x-|
G--------------------------6-6-x-x-6-6-x-x-6-6-x-x-6-6-x-x-|
D--------------------------7-7-x-x-7-7-x-x-7-7-x-x-7-7-x-x-|
A--------------------------7-7-x-x-7-7-x-x-7-7-x-x-7-7-x-x-|
E--------------------------5-5-x-x-5-5-x-x-5-5-x-x-5-5-x-x-|

Verse 1

Pre Chorus

e--8b--8b--8--8--8--8--8--8-5-5-5-5-5-5-5-5-5-3-3--|
B-10b-10b-10-10-10-10-10-10-6-6-6-6-6-6-6-6-6-5-5--|
G-10b-10b-10-10-10-10-10-10-7-7-7-7-7-7-7-7-7-5-5--|
D-10b-10b-10-10-10-10-10-10-7-7-7-7-7-7-7-7-7-5-5--|
A--8b--8b--8--8--8--8--8--8-5-5-5-5-5-5-5-5-5-3-3--|
E--------------------------------------------------|

Chorus

e--8--8--8--8--8---8--8--8--8--8---8--8--8--8--8---8--8--8--8--8-|
B-10-10-10-10-10--10-10-10-10-10--10-10-10-10-10--10-10-10-10-10-|
G-10-10-10-10-10--10-10-10-10-10--10-10-10-10-10--10-10-10-10-10-|
D-10-10-10-10-10--10-10-10-10-10--10-10-10-10-10--10-10-10-10-10-|
A--8--8--8--8--8---8--8--8--8--8---8--8--8--8--8---8--8--8--8--8-|
E----------------------------------------------------------------|

e-5-5-5-5-5--5-5-5-5-5--5-5-5-5-5-5-5-5--3-3-3-|
B-6-6-6-6-6--6-6-6-6-6--6-6-6-6-6-6-6-6--5-5-5-|
G-7-7-7-7-7--7-7-7-7-7--7-7-7-7-7-7-7-7--5-5-5-|
D-7-7-7-7-7--7-7-7-7-7--7-7-7-7-7-7-7-7--5-5-5-|
A-5-5-5-5-5--5-5-5-5-5--5-5-5-5-5-5-5-5--3-3-3-|
E----------------------------------------------|

e--8--8--8--8--8---8--8--8--8--8---8--8--8--8--8---8--8--8--8--8-|
B-10-10-10-10-10--10-10-10-10-10--10-10-10-10-10--10-10-10-10-10-|
G-10-10-10-10-10--10-10-10-10-10--10-10-10-10-10--10-10-10-10-10-|
D-10-10-10-10-10--10-10-10-10-10--10-10-10-10-10--10-10-10-10-10-|
A--8--8--8--8--8---8--8--8--8--8---8--8--8--8--8---8--8--8--8--8-|
E----------------------------------------------------------------|

e-5-5-5-5-5--5-5-5-5-5--5-5-5-5-5-5-5-5--3-3-3-|
B-6-6-6-6-6--6-6-6-6-6--6-6-6-6-6-6-6-6--5-5-5-|
G-7-7-7-7-7--7-7-7-7-7--7-7-7-7-7-7-7-7--5-5-5-|
D-7-7-7-7-7--7-7-7-7-7--7-7-7-7-7-7-7-7--5-5-5-|
A-5-5-5-5-5--5-5-5-5-5--5-5-5-5-5-5-5-5--3-3-3-|
E----------------------------------------------|

Verse 2

Pre Chorus

e--8b--8b--8--8--8--8--8--8-5-5-5-5-5-5-5-5-5-3-3--|
B-10b-10b-10-10-10-10-10-10-6-6-6-6-6-6-6-6-6-5-5--|
G-10b-10b-10-10-10-10-10-10-7-7-7-7-7-7-7-7-7-5-5--|
D-10b-10b-10-10-10-10-10-10-7-7-7-7-7-7-7-7-7-5-5--|
A--8b--8b--8--8--8--8--8--8-5-5-5-5-5-5-5-5-5-3-3--|
E--------------------------------------------------|

Chorus

e--8--8--8--8--8---8--8--8--8--8---8--8--8--8--8---8--8--8--8--8-|
B-10-10-10-10-10--10-10-10-10-10--10-10-10-10-10--10-10-10-10-10-|
G-10-10-10-10-10--10-10-10-10-10--10-10-10-10-10--10-10-10-10-10-|
D-10-10-10-10-10--10-10-10-10-10--10-10-10-10-10--10-10-10-10-10-|
A--8--8--8--8--8---8--8--8--8--8---8--8--8--8--8---8--8--8--8--8-|
E----------------------------------------------------------------|

e-5-5-5-5-5--5-5-5-5-5--5-5-5-5-5-5-5-5--3-3-3-|
B-6-6-6-6-6--6-6-6-6-6--6-6-6-6-6-6-6-6--5-5-5-|
G-7-7-7-7-7--7-7-7-7-7--7-7-7-7-7-7-7-7--5-5-5-|
D-7-7-7-7-7--7-7-7-7-7--7-7-7-7-7-7-7-7--5-5-5-|
A-5-5-5-5-5--5-5-5-5-5--5-5-5-5-5-5-5-5--3-3-3-|
E----------------------------------------------|

e--8--8--8--8--8---8--8--8--8--8---8--8--8--8--8---8--8--8--8--8-|
B-10-10-10-10-10--10-10-10-10-10--10-10-10-10-10--10-10-10-10-10-|
G-10-10-10-10-10--10-10-10-10-10--10-10-10-10-10--10-10-10-10-10-|
D-10-10-10-10-10--10-10-10-10-10--10-10-10-10-10--10-10-10-10-10-|
A--8--8--8--8--8---8--8--8--8--8---8--8--8--8--8---8--8--8--8--8-|
E----------------------------------------------------------------|

e-5-5-5-5-5--5-5-5-5-5--5-5-5-5-5-5-5-5--3-3-3-|
B-6-6-6-6-6--6-6-6-6-6--6-6-6-6-6-6-6-6--5-5-5-|
G-7-7-7-7-7--7-7-7-7-7--7-7-7-7-7-7-7-7--5-5-5-|
D-7-7-7-7-7--7-7-7-7-7--7-7-7-7-7-7-7-7--5-5-5-|
A-5-5-5-5-5--5-5-5-5-5--5-5-5-5-5-5-5-5--3-3-3-|
E----------------------------------------------|

Break

e--8--8--8--8--8-3-5-5-5-5------------------------|
B-10-10-10-10-10-5-6-6-6-6------------------------|
G-10-10-10-10-10-5-7-7-7-7--10-10-10-10-10-10-9-7-|
D-10-10-10-10-10-5-7-7-7-7------------------------|
A--8--8--8--8--8-3-5-5-5-5------------------------|
E-------------------------------------------------|

e--8--8--8--8--8-3-5-5-5-5------------------------|
B-10-10-10-10-10-5-6-6-6-6------------------------|
G-10-10-10-10-10-5-7-7-7-7--10-10-10-10-10-10-9-7-|
D-10-10-10-10-10-5-7-7-7-7------------------------|
A--8--8--8--8--8-3-5-5-5-5------------------------|
E-------------------------------------------------|

e--8--8--8--8--8-3-5-5-5-5------------------------|
B-10-10-10-10-10-5-6-6-6-6------------------------|
G-10-10-10-10-10-5-7-7-7-7--10-10-10-10-10-10-9-7-|
D-10-10-10-10-10-5-7-7-7-7------------------------|
A--8--8--8--8--8-3-5-5-5-5------------------------|
E-------------------------------------------------|

e-------------------------------------------------------|
B-------------------------------------------------------|
G-12-12-12-12-12-12-12-12-12-12-12-12-12-12-12-12-12-12-|
D-12-12-12-12-12-12-12-12-12-12-12-12-12-12-12-12-12-12-|
A-10-10-10-10-10-10-10-10-10-10-10-10-10-10-10-10-10-10-|
E-------------------------------------------------------|

e---------|
B---------|
G-11-10-9-|
D-11-10-9-|
A--9--8-7-|
E---------|

Post Chorus

Chorus - slowly picking up pace

e--8--8--8--8--8---8--8--8--8--8---8--8--8--8--8---8--8--8--8--8-|
B-10-10-10-10-10--10-10-10-10-10--10-10-10-10-10--10-10-10-10-10-|
G-10-10-10-10-10--10-10-10-10-10--10-10-10-10-10--10-10-10-10-10-|
D-10-10-10-10-10--10-10-10-10-10--10-10-10-10-10--10-10-10-10-10-|
A--8--8--8--8--8---8--8--8--8--8---8--8--8--8--8---8--8--8--8--8-|
E----------------------------------------------------------------|

e-5-5-5-5-5--5-5-5-5-5--5-5-5-5-5-5-5-5--3-3-3-|
B-6-6-6-6-6--6-6-6-6-6--6-6-6-6-6-6-6-6--5-5-5-|
G-7-7-7-7-7--7-7-7-7-7--7-7-7-7-7-7-7-7--5-5-5-|
D-7-7-7-7-7--7-7-7-7-7--7-7-7-7-7-7-7-7--5-5-5-|
A-5-5-5-5-5--5-5-5-5-5--5-5-5-5-5-5-5-5--3-3-3-|
E----------------------------------------------|

e--8--8--8--8--8---8--8--8--8--8---8--8--8--8--8---8--8--8--8--8-|
B-10-10-10-10-10--10-10-10-10-10--10-10-10-10-10--10-10-10-10-10-|
G-10-10-10-10-10--10-10-10-10-10--10-10-10-10-10--10-10-10-10-10-|
D-10-10-10-10-10--10-10-10-10-10--10-10-10-10-10--10-10-10-10-10-|
A--8--8--8--8--8---8--8--8--8--8---8--8--8--8--8---8--8--8--8--8-|
E----------------------------------------------------------------|

e-5-5-5-5-5--5-5-5-5-5--5-5-5-5-5-5-5-5--3-3-3-|
B-6-6-6-6-6--6-6-6-6-6--6-6-6-6-6-6-6-6--5-5-5-|
G-7-7-7-7-7--7-7-7-7-7--7-7-7-7-7-7-7-7--5-5-5-|
D-7-7-7-7-7--7-7-7-7-7--7-7-7-7-7-7-7-7--5-5-5-|
A-5-5-5-5-5--5-5-5-5-5--5-5-5-5-5-5-5-5--3-3-3-|
E----------------------------------------------|

e--8--8--8--8--8---8--8--8--8--8---8--8--8--8--8---8--8--8--8--8-|
B-10-10-10-10-10--10-10-10-10-10--10-10-10-10-10--10-10-10-10-10-|
G-10-10-10-10-10--10-10-10-10-10--10-10-10-10-10--10-10-10-10-10-|
D-10-10-10-10-10--10-10-10-10-10--10-10-10-10-10--10-10-10-10-10-|
A--8--8--8--8--8---8--8--8--8--8---8--8--8--8--8---8--8--8--8--8-|
E----------------------------------------------------------------|

e-5-5-5-5-5--5-5-5-5-5--5-5-5-5-5-5-5-5--3-3-3-|
B-6-6-6-6-6--6-6-6-6-6--6-6-6-6-6-6-6-6--5-5-5-|
G-7-7-7-7-7--7-7-7-7-7--7-7-7-7-7-7-7-7--5-5-5-|
D-7-7-7-7-7--7-7-7-7-7--7-7-7-7-7-7-7-7--5-5-5-|
A-5-5-5-5-5--5-5-5-5-5--5-5-5-5-5-5-5-5--3-3-3-|
E----------------------------------------------|

e--8--8--8--8--8---8--8--8--8--8---8--8--8--8--8---8--8--8--8--8-|
B-10-10-10-10-10--10-10-10-10-10--10-10-10-10-10--10-10-10-10-10-|
G-10-10-10-10-10--10-10-10-10-10--10-10-10-10-10--10-10-10-10-10-|
D-10-10-10-10-10--10-10-10-10-10--10-10-10-10-10--10-10-10-10-10-|
A--8--8--8--8--8---8--8--8--8--8---8--8--8--8--8---8--8--8--8--8-|
E----------------------------------------------------------------|

e-5-5-5-5-5--5-5-5-5-5--5-5-5-5-5-5-5-5--3-3-3-|
B-6-6-6-6-6--6-6-6-6-6--6-6-6-6-6-6-6-6--5-5-5-|
G-7-7-7-7-7--7-7-7-7-7--7-7-7-7-7-7-7-7--5-5-5-|
D-7-7-7-7-7--7-7-7-7-7--7-7-7-7-7-7-7-7--5-5-5-|
A-5-5-5-5-5--5-5-5-5-5--5-5-5-5-5-5-5-5--3-3-3-|
E----------------------------------------------|

e--8--8--8--8--8---8--8--8--8--8---8--8--8--8--8---8--8--8--8--8-|
B-10-10-10-10-10--10-10-10-10-10--10-10-10-10-10--10-10-10-10-10-|
G-10-10-10-10-10--10-10-10-10-10--10-10-10-10-10--10-10-10-10-10-|
D-10-10-10-10-10--10-10-10-10-10--10-10-10-10-10--10-10-10-10-10-|
A--8--8--8--8--8---8--8--8--8--8---8--8--8--8--8---8--8--8--8--8-|
E----------------------------------------------------------------|

e-5-5-5-5-5--5-5-5-5-5--5-5-5-5-5-5-5-5--3-3-3-|
B-6-6-6-6-6--6-6-6-6-6--6-6-6-6-6-6-6-6--5-5-5-|
G-7-7-7-7-7--7-7-7-7-7--7-7-7-7-7-7-7-7--5-5-5-|
D-7-7-7-7-7--7-7-7-7-7--7-7-7-7-7-7-7-7--5-5-5-|
A-5-5-5-5-5--5-5-5-5-5--5-5-5-5-5-5-5-5--3-3-3-|
E----------------------------------------------|

e--8--8--8--8--8---8--8--8--8--8---8--8--8--8--8---8--8--8--8--8-|
B-10-10-10-10-10--10-10-10-10-10--10-10-10-10-10--10-10-10-10-10-|
G-10-10-10-10-10--10-10-10-10-10--10-10-10-10-10--10-10-10-10-10-|
D-10-10-10-10-10--10-10-10-10-10--10-10-10-10-10--10-10-10-10-10-|
A--8--8--8--8--8---8--8--8--8--8---8--8--8--8--8---8--8--8--8--8-|
E----------------------------------------------------------------|

e-5-5-5-5-5--5-5-5-5-5--5-5-5-5-5-5-5-5--3-3-3-|
B-6-6-6-6-6--6-6-6-6-6--6-6-6-6-6-6-6-6--5-5-5-|
G-7-7-7-7-7--7-7-7-7-7--7-7-7-7-7-7-7-7--5-5-5-|
D-7-7-7-7-7--7-7-7-7-7--7-7-7-7-7-7-7-7--5-5-5-|
A-5-5-5-5-5--5-5-5-5-5--5-5-5-5-5-5-5-5--3-3-3-|
E----------------------------------------------|


Anthony's Parts

Intro
                                                    1/2
e---3-------3-----/7-5-5-7-5\---3-------3-----/7-5-|
B---------0---0-1----5-5---5\---------0---0-1----5-|
G-0---0-3------------5-5---5\-0---0-3------------5-|
D--------------------------------------------------|
A--------------------------------------------------|
E--------------------------------------------------|

3/4

Pre Verse
[ Tab from: http://www.guitaretab.com/d/dirty-pretty-things/77505.html ]
e----8----8----8----9b-b-r-5-5-x-x-5-5-x-x-5-5-x-x-5-5-x-x-|
B-8b---8b---8b---8b--------5-5-x-x-5-5-x-x-5-5-x-x-5-5-x-x-|
G--------------------------6-6-x-x-6-6-x-x-6-6-x-x-6-6-x-x-|
D--------------------------7-7-x-x-7-7-x-x-7-7-x-x-7-7-x-x-|
A--------------------------7-7-x-x-7-7-x-x-7-7-x-x-7-7-x-x-|
E--------------------------5-5-x-x-5-5-x-x-5-5-x-x-5-5-x-x-|

e----8----8----8----9b-b-r-5-5-x-x-5-5-x-x-5-5-x-x-5-5-x-x-|
B-8b---8b---8b---8b--------5-5-x-x-5-5-x-x-5-5-x-x-5-5-x-x-|
G--------------------------6-6-x-x-6-6-x-x-6-6-x-x-6-6-x-x-|
D--------------------------7-7-x-x-7-7-x-x-7-7-x-x-7-7-x-x-|
A--------------------------7-7-x-x-7-7-x-x-7-7-x-x-7-7-x-x-|
E--------------------------5-5-x-x-5-5-x-x-5-5-x-x-5-5-x-x-|

Verse 1

e--------------------------------------------------------------|
B-15-13-----13-13-15-15-15-15-15-15-15-----8-8-8-10-10--15-13--|
G-14-14-----14-14-14-14-14-14-14-14-14-----9-9-9--9--9--14-14--|
D--------------------------------------------------------------|
A--------------------------------------------------------------|
E--------------------------------------------------------------|

e------------------------------13---13---13---13-|
B-13-13-15-15-15-15-15-15-15---15---15---15---15-|
G-14-14-14-14-14-14-14-14-14---15---15---15---15-|
D------------------------------15---15---15---15-|
A------------------------------13---13---13---13-|
E------------------------------------------------|

Pre Chorus

e--8--8--8--8--8--8--8--8-5-5-5-5-5-5-5-5-5-3-3--|
B-10-10-10-10-10-10-10-10-6-6-6-6-6-6-6-6-6-5-5--|
G-10-10-10-10-10-10-10-10-7-7-7-7-7-7-7-7-7-5-5--|
D-10-10-10-10-10-10-10-10-7-7-7-7-7-7-7-7-7-5-5--|
A--8--8--8--8--8--8--8--8-5-5-5-5-5-5-5-5-5-3-3--|
E------------------------------------------------|

Chorus

e--8--8--8--8--8---8--8--8--8--8---8--8--8--8--8---8--8--8--8--8-|
B-10-10-10-10-10--10-10-10-10-10--10-10-10-10-10--10-10-10-10-10-|
G-10-10-10-10-10--10-10-10-10-10--10-10-10-10-10--10-10-10-10-10-|
D-10-10-10-10-10--10-10-10-10-10--10-10-10-10-10--10-10-10-10-10-|
A--8--8--8--8--8---8--8--8--8--8---8--8--8--8--8---8--8--8--8--8-|
E----------------------------------------------------------------|

e-5-5-5-5-5--5-5-5-5-5--5-5-5-5-5-5-5-5--3-3-3-|
B-6-6-6-6-6--6-6-6-6-6--6-6-6-6-6-6-6-6--5-5-5-|
G-7-7-7-7-7--7-7-7-7-7--7-7-7-7-7-7-7-7--5-5-5-|
D-7-7-7-7-7--7-7-7-7-7--7-7-7-7-7-7-7-7--5-5-5-|
A-5-5-5-5-5--5-5-5-5-5--5-5-5-5-5-5-5-5--3-3-3-|
E----------------------------------------------|

e--8--8--8--8--8---8--8--8--8--8---8--8--8--8--8---8--8--8--8--8-|
B-10-10-10-10-10--10-10-10-10-10--10-10-10-10-10--10-10-10-10-10-|
G-10-10-10-10-10--10-10-10-10-10--10-10-10-10-10--10-10-10-10-10-|
D-10-10-10-10-10--10-10-10-10-10--10-10-10-10-10--10-10-10-10-10-|
A--8--8--8--8--8---8--8--8--8--8---8--8--8--8--8---8--8--8--8--8-|
E----------------------------------------------------------------|

e-5-5-5-5-5--5-5-5-5-5--5-5-5-5-5-5-5-5--3-3-3-|
B-6-6-6-6-6--6-6-6-6-6--6-6-6-6-6-6-6-6--5-5-5-|
G-7-7-7-7-7--7-7-7-7-7--7-7-7-7-7-7-7-7--5-5-5-|
D-7-7-7-7-7--7-7-7-7-7--7-7-7-7-7-7-7-7--5-5-5-|
A-5-5-5-5-5--5-5-5-5-5--5-5-5-5-5-5-5-5--3-3-3-|
E----------------------------------------------|

Post Chorus

e--------------------------------------------------|
B-13h15-13-13-13-13-13-15-13-15\-10-10-10-10-8-8-8-|
G-14-14-14-14-14-14-14-14-14-14\--9--9--9--9-9-9-9-|
D--------------------------------------------------|
A--------------------------------------------------|
E--------------------------------------------------|

e--------------------------------------------------|
B-13h15-13-13-13-13-13-15-13-15\-10-10-10-10-8-8-8-|
G-14-14-14-14-14-14-14-14-14-14\--9--9--9--9-9-9-9-|
D--------------------------------------------------|
A--------------------------------------------------|
E--------------------------------------------------|

Verse 2

e--------------------------------------------------------------|
B-15-13-----13-13-15-15-15-15-15-15-15-----8-8-8-10-10--15-13--|
G-14-14-----14-14-14-14-14-14-14-14-14-----9-9-9--9--9--14-14--|
D--------------------------------------------------------------|
A--------------------------------------------------------------|
E--------------------------------------------------------------|

e------------------------------13---13---13---13-|
B-13-13-15-15-15-15-15-15-15---15---15---15---15-|
G-14-14-14-14-14-14-14-14-14---15---15---15---15-|
D------------------------------15---15---15---15-|
A------------------------------13---13---13---13-|
E------------------------------------------------|

Pre Chorus

e--8--8--8--8--8--8--8--8-5-5-5-5-5-5-5-5-5-3-3--|
B-10-10-10-10-10-10-10-10-6-6-6-6-6-6-6-6-6-5-5--|
G-10-10-10-10-10-10-10-10-7-7-7-7-7-7-7-7-7-5-5--|
D-10-10-10-10-10-10-10-10-7-7-7-7-7-7-7-7-7-5-5--|
A--8--8--8--8--8--8--8--8-5-5-5-5-5-5-5-5-5-3-3--|
E------------------------------------------------|

Chorus

e--8--8--8--8--8---8--8--8--8--8---8--8--8--8--8---8--8--8--8--8-|
B-10-10-10-10-10--10-10-10-10-10--10-10-10-10-10--10-10-10-10-10-|
G-10-10-10-10-10--10-10-10-10-10--10-10-10-10-10--10-10-10-10-10-|
D-10-10-10-10-10--10-10-10-10-10--10-10-10-10-10--10-10-10-10-10-|
A--8--8--8--8--8---8--8--8--8--8---8--8--8--8--8---8--8--8--8--8-|
E----------------------------------------------------------------|

e-5-5-5-5-5--5-5-5-5-5--5-5-5-5-5-5-5-5--3-3-3-|
B-6-6-6-6-6--6-6-6-6-6--6-6-6-6-6-6-6-6--5-5-5-|
G-7-7-7-7-7--7-7-7-7-7--7-7-7-7-7-7-7-7--5-5-5-|
D-7-7-7-7-7--7-7-7-7-7--7-7-7-7-7-7-7-7--5-5-5-|
A-5-5-5-5-5--5-5-5-5-5--5-5-5-5-5-5-5-5--3-3-3-|
E----------------------------------------------|

e--8--8--8--8--8---8--8--8--8--8---8--8--8--8--8---8--8--8--8--8-|
B-10-10-10-10-10--10-10-10-10-10--10-10-10-10-10--10-10-10-10-10-|
G-10-10-10-10-10--10-10-10-10-10--10-10-10-10-10--10-10-10-10-10-|
D-10-10-10-10-10--10-10-10-10-10--10-10-10-10-10--10-10-10-10-10-|
A--8--8--8--8--8---8--8--8--8--8---8--8--8--8--8---8--8--8--8--8-|
E----------------------------------------------------------------|

e-5-5-5-5-5--5-5-5-5-5--5-5-5-5-5-5-5-5--3-3-3-|
B-6-6-6-6-6--6-6-6-6-6--6-6-6-6-6-6-6-6--5-5-5-|
G-7-7-7-7-7--7-7-7-7-7--7-7-7-7-7-7-7-7--5-5-5-|
D-7-7-7-7-7--7-7-7-7-7--7-7-7-7-7-7-7-7--5-5-5-|
A-5-5-5-5-5--5-5-5-5-5--5-5-5-5-5-5-5-5--3-3-3-|
E----------------------------------------------|


Break

e--8--8--8--8--8-3-5-5-5-5------------------------|
B-10-10-10-10-10-5-6-6-6-6------------------------|
G-10-10-10-10-10-5-7-7-7-7--10-10-10-10-10-10-9-7-|
D-10-10-10-10-10-5-7-7-7-7------------------------|
A--8--8--8--8--8-3-5-5-5-5------------------------|
E-------------------------------------------------|

e--8--8--8--8--8-3-5-5-5-5------------------------|
B-10-10-10-10-10-5-6-6-6-6------------------------|
G-10-10-10-10-10-5-7-7-7-7--10-10-10-10-10-10-9-7-|
D-10-10-10-10-10-5-7-7-7-7------------------------|
A--8--8--8--8--8-3-5-5-5-5------------------------|
E-------------------------------------------------|

e--8--8--8--8--8-3-5-5-5-5------------------------|
B-10-10-10-10-10-5-6-6-6-6------------------------|
G-10-10-10-10-10-5-7-7-7-7--10-10-10-10-10-10-9-7-|
D-10-10-10-10-10-5-7-7-7-7------------------------|
A--8--8--8--8--8-3-5-5-5-5------------------------|
E-------------------------------------------------|

e-------------------------------------------------------|
B-------------------------------------------------------|
G-12-12-12-12-12-12-12-12-12-12-12-12-12-12-12-12-12-12-|
D-12-12-12-12-12-12-12-12-12-12-12-12-12-12-12-12-12-12-|
A-10-10-10-10-10-10-10-10-10-10-10-10-10-10-10-10-10-10-|
E-------------------------------------------------------|

e---------|
B---------|
G-11-10-9-|
D-11-10-9-|
A--9--8-7-|
E---------|

Post Chorus

e--------------------------------------------------|
B-13h15-13-13-13-13-13-15-13-15\-10-10-10-10-8-8-8-|
G-14-14-14-14-14-14-14-14-14-14\--9--9--9--9-9-9-9-|
D--------------------------------------------------|
A--------------------------------------------------|
E--------------------------------------------------|

e--------------------------------------------------|
B-13h15-13-13-13-13-13-15-13-15\-10-10-10-10-8-8-8-|
G-14-14-14-14-14-14-14-14-14-14\--9--9--9--9-9-9-9-|
D--------------------------------------------------|
A--------------------------------------------------|
E--------------------------------------------------|

e--------------------------------------------------|
B-13h15-13-13-13-13-13-15-13-15\-10-10-10-10-8-8-8-|
G-14-14-14-14-14-14-14-14-14-14\--9--9--9--9-9-9-9-|
D--------------------------------------------------|
A--------------------------------------------------|
E--------------------------------------------------|

e--------------------------------------------------|
B-13h15-13-13-13-13-13-15-13-15\-10-10-10-10-8-8-8-|
G-14-14-14-14-14-14-14-14-14-14\--9--9--9--9-9-9-9-|
D--------------------------------------------------|
A--------------------------------------------------|
E--------------------------------------------------|

e--------------------------------------------------|
B-13h15-13-13-13-13-13-15-13-15\-10-10-10-10-8-8-8-|
G-14-14-14-14-14-14-14-14-14-14\--9--9--9--9-9-9-9-|
D--------------------------------------------------|
A--------------------------------------------------|
E--------------------------------------------------|

e--------------------------------------------------|
B-13h15-13-13-13-13-13-15-13-15\-10-10-10-10-8-8-8-|
G-14-14-14-14-14-14-14-14-14-14\--9--9--9--9-9-9-9-|
D--------------------------------------------------|
A--------------------------------------------------|
E--------------------------------------------------|

Chorus - slowly picking up pace

e--8--8--8--8--8---8--8--8--8--8---8--8--8--8--8---8--8--8--8--8-|
B-10-10-10-10-10--10-10-10-10-10--10-10-10-10-10--10-10-10-10-10-|
G-10-10-10-10-10--10-10-10-10-10--10-10-10-10-10--10-10-10-10-10-|
D-10-10-10-10-10--10-10-10-10-10--10-10-10-10-10--10-10-10-10-10-|
A--8--8--8--8--8---8--8--8--8--8---8--8--8--8--8---8--8--8--8--8-|
E----------------------------------------------------------------|

e-5-5-5-5-5--5-5-5-5-5--5-5-5-5-5-5-5-5--3-3-3-|
B-6-6-6-6-6--6-6-6-6-6--6-6-6-6-6-6-6-6--5-5-5-|
G-7-7-7-7-7--7-7-7-7-7--7-7-7-7-7-7-7-7--5-5-5-|
D-7-7-7-7-7--7-7-7-7-7--7-7-7-7-7-7-7-7--5-5-5-|
A-5-5-5-5-5--5-5-5-5-5--5-5-5-5-5-5-5-5--3-3-3-|
E----------------------------------------------|

e--8--8--8--8--8---8--8--8--8--8---8--8--8--8--8---8--8--8--8--8-|
B-10-10-10-10-10--10-10-10-10-10--10-10-10-10-10--10-10-10-10-10-|
G-10-10-10-10-10--10-10-10-10-10--10-10-10-10-10--10-10-10-10-10-|
D-10-10-10-10-10--10-10-10-10-10--10-10-10-10-10--10-10-10-10-10-|
A--8--8--8--8--8---8--8--8--8--8---8--8--8--8--8---8--8--8--8--8-|
E----------------------------------------------------------------|

e-5-5-5-5-5--5-5-5-5-5--5-5-5-5-5-5-5-5--3-3-3-|
B-6-6-6-6-6--6-6-6-6-6--6-6-6-6-6-6-6-6--5-5-5-|
G-7-7-7-7-7--7-7-7-7-7--7-7-7-7-7-7-7-7--5-5-5-|
D-7-7-7-7-7--7-7-7-7-7--7-7-7-7-7-7-7-7--5-5-5-|
A-5-5-5-5-5--5-5-5-5-5--5-5-5-5-5-5-5-5--3-3-3-|
E----------------------------------------------|

e--8--8--8--8--8---8--8--8--8--8---8--8--8--8--8---8--8--8--8--8-|
B-10-10-10-10-10--10-10-10-10-10--10-10-10-10-10--10-10-10-10-10-|
G-10-10-10-10-10--10-10-10-10-10--10-10-10-10-10--10-10-10-10-10-|
D-10-10-10-10-10--10-10-10-10-10--10-10-10-10-10--10-10-10-10-10-|
A--8--8--8--8--8---8--8--8--8--8---8--8--8--8--8---8--8--8--8--8-|
E----------------------------------------------------------------|

e-5-5-5-5-5--5-5-5-5-5--5-5-5-5-5-5-5-5--3-3-3-|
B-6-6-6-6-6--6-6-6-6-6--6-6-6-6-6-6-6-6--5-5-5-|
G-7-7-7-7-7--7-7-7-7-7--7-7-7-7-7-7-7-7--5-5-5-|
D-7-7-7-7-7--7-7-7-7-7--7-7-7-7-7-7-7-7--5-5-5-|
A-5-5-5-5-5--5-5-5-5-5--5-5-5-5-5-5-5-5--3-3-3-|
E----------------------------------------------|

e--8--8--8--8--8---8--8--8--8--8---8--8--8--8--8---8--8--8--8--8-|
B-10-10-10-10-10--10-10-10-10-10--10-10-10-10-10--10-10-10-10-10-|
G-10-10-10-10-10--10-10-10-10-10--10-10-10-10-10--10-10-10-10-10-|
D-10-10-10-10-10--10-10-10-10-10--10-10-10-10-10--10-10-10-10-10-|
A--8--8--8--8--8---8--8--8--8--8---8--8--8--8--8---8--8--8--8--8-|
E----------------------------------------------------------------|

e-5-5-5-5-5--5-5-5-5-5--5-5-5-5-5-5-5-5--3-3-3-|
B-6-6-6-6-6--6-6-6-6-6--6-6-6-6-6-6-6-6--5-5-5-|
G-7-7-7-7-7--7-7-7-7-7--7-7-7-7-7-7-7-7--5-5-5-|
D-7-7-7-7-7--7-7-7-7-7--7-7-7-7-7-7-7-7--5-5-5-|
A-5-5-5-5-5--5-5-5-5-5--5-5-5-5-5-5-5-5--3-3-3-|
E----------------------------------------------|

e--8--8--8--8--8---8--8--8--8--8---8--8--8--8--8---8--8--8--8--8-|
B-10-10-10-10-10--10-10-10-10-10--10-10-10-10-10--10-10-10-10-10-|
G-10-10-10-10-10--10-10-10-10-10--10-10-10-10-10--10-10-10-10-10-|
D-10-10-10-10-10--10-10-10-10-10--10-10-10-10-10--10-10-10-10-10-|
A--8--8--8--8--8---8--8--8--8--8---8--8--8--8--8---8--8--8--8--8-|
E----------------------------------------------------------------|

e-5-5-5-5-5--5-5-5-5-5--5-5-5-5-5-5-5-5--3-3-3-|
B-6-6-6-6-6--6-6-6-6-6--6-6-6-6-6-6-6-6--5-5-5-|
G-7-7-7-7-7--7-7-7-7-7--7-7-7-7-7-7-7-7--5-5-5-|
D-7-7-7-7-7--7-7-7-7-7--7-7-7-7-7-7-7-7--5-5-5-|
A-5-5-5-5-5--5-5-5-5-5--5-5-5-5-5-5-5-5--3-3-3-|
E----------------------------------------------|

e--8--8--8--8--8---8--8--8--8--8---8--8--8--8--8---8--8--8--8--8-|
B-10-10-10-10-10--10-10-10-10-10--10-10-10-10-10--10-10-10-10-10-|
G-10-10-10-10-10--10-10-10-10-10--10-10-10-10-10--10-10-10-10-10-|
D-10-10-10-10-10--10-10-10-10-10--10-10-10-10-10--10-10-10-10-10-|
A--8--8--8--8--8---8--8--8--8--8---8--8--8--8--8---8--8--8--8--8-|
E----------------------------------------------------------------|

e-5-5-5-5-5--5-5-5-5-5--5-5-5-5-5-5-5-5--3-3-3-|
B-6-6-6-6-6--6-6-6-6-6--6-6-6-6-6-6-6-6--5-5-5-|
G-7-7-7-7-7--7-7-7-7-7--7-7-7-7-7-7-7-7--5-5-5-|
D-7-7-7-7-7--7-7-7-7-7--7-7-7-7-7-7-7-7--5-5-5-|
A-5-5-5-5-5--5-5-5-5-5--5-5-5-5-5-5-5-5--3-3-3-|
E----------------------------------------------|

So far dishonest as the day is long

Im sorry so Iíll go now

But I love you so it wont be long

And the spectres in the masonry remind us of the things that might have been

Isnít it time you washed your face

It looks like a burnt out fireplace

And I am awash with memories

And worrying complexities

But in time (in time)

Youíll find it very scary

Itís hard to live respectfully

The Enemy as I know it is right inside my head

The Enemy as I know it is right inside my head

Everyones still all over the place

And not to humble to embrace

And oh my gosh the memories

But your arrogance perplexes me

Now this time (this time)

I shouldnít be so lary

Just try to live respectfully

The enemy as I know it is right inside my head

The enemy as I know it is right inside my head

So are you giving it a shot now

And it all came back a

and you did a little turn now

Well they didnít like that

Are you going to give it up for?

(And the spectres in the masonary remind us of the things that might have been)

All you needís a gentle heart

To see you through endless dark

All you needs a gentle heart

To see you through endless dark


The Enemy as I know it is right inside my head

The Enemy as I know it is right inside my head

The Enemy as I know it is right inside my head

The Enemy as I know it is right inside my head

I think I go this one decent any corrections PM me.


If You Love A Woman

Carl's Parts

Intro
  1/4
e-12-12-11-11-10-10-9-9-12-12-11-11-10-10-9-9-|
B---------------------------------------------|
G---------------------------------------------|
D---------------------------------------------|
A---------------------------------------------|
E---------------------------------------------|

e-12-12-11-11-10-10-9-9-12-12-11-11-10-10-9-9-|
B---------------------------------------------|
G---------------------------------------------|
D---------------------------------------------|
A---------------------------------------------|
E---------------------------------------------|
  *  *  *  *  *  *  *  *  *
e-12-12-12-12-12-12-12-12-12-|
B----------------------------|
G----------------------------|
D----------------------------|
A----------------------------|
E----------------------------|

e-x-x-17-x-15-x-15-15-15-14-14-12-12-11-11-12-12-|
B------------------------------------------------|
G------------------------------------------------|
D------------------------------------------------|
A------------------------------------------------|
E------------------------------------------------|

e--------------------------------------------|
B-x-x-14-12-12-12-12-12-12-12-10-8-8-7-7-8-8-|
G--------------------------------------------|
D--------------------------------------------|
A--------------------------------------------|
E--------------------------------------------|

Pre Verse

e-7-7-7-7-7-5-5-5-5-5-|
B-7-7-7-7-9-5-5-5-5-5-|
G-8-8-8-8-9-6-6-6-6-6-|
D-9-9-9-9-9-7-7-7-7-7-|
A-9-9-9-9-7-7-7-7-7-7-|
E-7-7-7-7---5-5-5-5-5-|

e-7-7-7-7-7-5-5-5-5-5-|
B-7-7-7-7-9-5-5-5-5-5-|
G-8-8-8-8-9-6-6-6-6-6-|
D-9-9-9-9-9-7-7-7-7-7-|
A-9-9-9-9-7-7-7-7-7-7-|
E-7-7-7-7---5-5-5-5-5-|

e-7-7-7-7-7-5-5-5-5-5-|
B-7-7-7-7-9-5-5-5-5-5-|
G-8-8-8-8-9-6-6-6-6-6-|
D-9-9-9-9-9-7-7-7-7-7-|
A-9-9-9-9-7-7-7-7-7-7-|
E-7-7-7-7---5-5-5-5-5-|

e-7-7-7-7-7-5-5-5-5-5-|
B-7-7-7-7-9-5-5-5-5-5-|
G-8-8-8-8-9-6-6-6-6-6-|
D-9-9-9-9-9-7-7-7-7-7-|
A-9-9-9-9-7-7-7-7-7-7-|
E-7-7-7-7---5-5-5-5-5-|

Verse 1

e-7-7-7-7-7-5-5-5-5-5-|
B-7-7-7-7-9-5-5-5-5-5-|
G-8-8-8-8-9-6-6-6-6-6-|
D-9-9-9-9-9-7-7-7-7-7-|
A-9-9-9-9-7-7-7-7-7-7-|
E-7-7-7-7---5-5-5-5-5-|

e-7-7-7-7-7-5-5-5-5-5-|
B-7-7-7-7-9-5-5-5-5-5-|
G-8-8-8-8-9-6-6-6-6-6-|
D-9-9-9-9-9-7-7-7-7-7-|
A-9-9-9-9-7-7-7-7-7-7-|
E-7-7-7-7---5-5-5-5-5-|

e-7-7-7-7-7-5-5-5-5-5-|
B-7-7-7-7-9-5-5-5-5-5-|
G-8-8-8-8-9-6-6-6-6-6-|
D-9-9-9-9-9-7-7-7-7-7-|
A-9-9-9-9-7-7-7-7-7-7-|
E-7-7-7-7---5-5-5-5-5-|

e-7-7-7-7-7-5-5-5-5-5-|
B-7-7-7-7-9-5-5-5-5-5-|
G-8-8-8-8-9-6-6-6-6-6-|
D-9-9-9-9-9-7-7-7-7-7-|
A-9-9-9-9-7-7-7-7-7-7-|
E-7-7-7-7---5-5-5-5-5-|

Pre Chorus

e-10-10-10-10-10-10-10-10--9--9--9--9-7-7-5-5-|
B-12-12-12-12-12-12-12-12-11-11-11-11-9-9-7-7-|
G-12-12-12-12-12-12-12-12-11-11-11-11-9-9-7-7-|
D-12-12-12-12-12-12-12-12-11-11-11-11-9-9-7-7-|
A-10-10-10-10-10-10-10-10--9--9--9--9-7-7-5-5-|
E---------------------------------------------|

e-10-10-10-10-10-10-10-10--9--9--9--9-7-7-5-5-|
B-12-12-12-12-12-12-12-12-11-11-11-11-9-9-7-7-|
G-12-12-12-12-12-12-12-12-11-11-11-11-9-9-7-7-|
D-12-12-12-12-12-12-12-12-11-11-11-11-9-9-7-7-|
A-10-10-10-10-10-10-10-10--9--9--9--9-7-7-5-5-|
E---------------------------------------------|

Chorus

e-7-7-7-7-7-5-5-x-x-10--9--8-|
B-7-7-7-7-9-5-5-x-x-10--9--8-|
G-8-8-8-8-9-6-6-x-x-11-10--9-|
D-9-9-9-9-9-7-7-x-x-12-11-10-|
A-9-9-9-9-7-7-7-x-x-12-11-10-|
E-7-7-7-7---5-5-x-x-10--9--8-|

e-7-7-7-7-7-5-5-x-x-10--9--8-|
B-7-7-7-7-9-5-5-x-x-10--9--8-|
G-8-8-8-8-9-6-6-x-x-11-10--9-|
D-9-9-9-9-9-7-7-x-x-12-11-10-|
A-9-9-9-9-7-7-7-x-x-12-11-10-|
E-7-7-7-7---5-5-x-x-10--9--8-|

e-7-7-7-7-7-5-5-x-x-10--9--8-|
B-7-7-7-7-9-5-5-x-x-10--9--8-|
G-8-8-8-8-9-6-6-x-x-11-10--9-|
D-9-9-9-9-9-7-7-x-x-12-11-10-|
A-9-9-9-9-7-7-7-x-x-12-11-10-|
E-7-7-7-7---5-5-x-x-10--9--8-|

e-7-7-7-7-7-5-5-x-x-10--9--8-|
B-7-7-7-7-9-5-5-x-x-10--9--8-|
G-8-8-8-8-9-6-6-x-x-11-10--9-|
D-9-9-9-9-9-7-7-x-x-12-11-10-|
A-9-9-9-9-7-7-7-x-x-12-11-10-|
E-7-7-7-7---5-5-x-x-10--9--8-|

Verse 2

e-7-7-7-7-7-5-5-5-5-5-|
B-7-7-7-7-9-5-5-5-5-5-|
G-8-8-8-8-9-6-6-6-6-6-|
D-9-9-9-9-9-7-7-7-7-7-|
A-9-9-9-9-7-7-7-7-7-7-|
E-7-7-7-7---5-5-5-5-5-|

e-7-7-7-7-7-5-5-5-5-5-|
B-7-7-7-7-9-5-5-5-5-5-|
G-8-8-8-8-9-6-6-6-6-6-|
D-9-9-9-9-9-7-7-7-7-7-|
A-9-9-9-9-7-7-7-7-7-7-|
E-7-7-7-7---5-5-5-5-5-|

e-7-7-7-7-7-5-5-5-5-5-|
B-7-7-7-7-9-5-5-5-5-5-|
G-8-8-8-8-9-6-6-6-6-6-|
D-9-9-9-9-9-7-7-7-7-7-|
A-9-9-9-9-7-7-7-7-7-7-|
E-7-7-7-7---5-5-5-5-5-|

e-7-7-7-7-7-5-5-5-5-5-|
B-7-7-7-7-9-5-5-5-5-5-|
G-8-8-8-8-9-6-6-6-6-6-|
D-9-9-9-9-9-7-7-7-7-7-|
A-9-9-9-9-7-7-7-7-7-7-|
E-7-7-7-7---5-5-5-5-5-|

Pre Chorus

e-10-10-10-10-10-10-10-10--9--9--9--9-7-7-5-5-|
B-12-12-12-12-12-12-12-12-11-11-11-11-9-9-7-7-|
G-12-12-12-12-12-12-12-12-11-11-11-11-9-9-7-7-|
D-12-12-12-12-12-12-12-12-11-11-11-11-9-9-7-7-|
A-10-10-10-10-10-10-10-10--9--9--9--9-7-7-5-5-|
E---------------------------------------------|

e-10-10-10-10-10-10-10-10--9--9--9--9-7-7-5-5-|
B-12-12-12-12-12-12-12-12-11-11-11-11-9-9-7-7-|
G-12-12-12-12-12-12-12-12-11-11-11-11-9-9-7-7-|
D-12-12-12-12-12-12-12-12-11-11-11-11-9-9-7-7-|
A-10-10-10-10-10-10-10-10--9--9--9--9-7-7-5-5-|
E---------------------------------------------|

Chorus

e-7-7-7-7-7-5-5-x-x-10--9--8-|
B-7-7-7-7-9-5-5-x-x-10--9--8-|
G-8-8-8-8-9-6-6-x-x-11-10--9-|
D-9-9-9-9-9-7-7-x-x-12-11-10-|
A-9-9-9-9-7-7-7-x-x-12-11-10-|
E-7-7-7-7---5-5-x-x-10--9--8-|

e-7-7-7-7-7-10-10-10-10--9--8-|
B-7-7-7-7-9-10-10-10-10--9--8-|
G-8-8-8-8-9-11-11-11-11-10--9-|
D-9-9-9-9-9-12-12-12-12-11-10-|
A-9-9-9-9-7-12-12-12-12-11-10-|
E-7-7-7-7---10-10-10-10--9--8-|


e-7-7-7-7-7-5-5-x-x-10--9--8-|
B-7-7-7-7-9-5-5-x-x-10--9--8-|
G-8-8-8-8-9-6-6-x-x-11-10--9-|
D-9-9-9-9-9-7-7-x-x-12-11-10-|
A-9-9-9-9-7-7-7-x-x-12-11-10-|
E-7-7-7-7---5-5-x-x-10--9--8-|

e-7-7-7-7-7-10-10-10-10--9--8-|
B-7-7-7-7-9-10-10-10-10--9--8-|
G-8-8-8-8-9-11-11-11-11-10--9-|
D-9-9-9-9-9-12-12-12-12-11-10-|
A-9-9-9-9-7-12-12-12-12-11-10-|
E-7-7-7-7---10-10-10-10--9--8-|

Bridge

e--9--9--9--9--9-12-|
B-11-11-11-11-11-14-|
G-11-11-11-11-11-14-|
D-11-11-11-11-11-14-|
A--9--9--9--9--9-12-|
E-------------------|

e-12-12-12-12-12-12-12-12-12-12-12-12-12-12-12-12-|
B-12-12-12-12-12-12-12-12-12-12-12-12-12-12-12-12-|
G-13-13-13-13-13-13-13-13-13-13-13-13-13-13-13-13-|
D-14-14-14-14-14-14-14-14-14-14-14-14-14-14-14-14-|
A-14-14-14-14-14-14-14-14-14-14-14-14-14-14-14-14-|
E-12-12-12-12-12-12-12-12-12-12-12-12-12-12-12-12-|

e-14-10-10-10-10-10-10-10-10-|
B-16-10-10-10-10-10-10-10-10-|
G-16-11-11-11-11-11-11-11-11-|
D-16-12-12-12-12-12-12-12-12-|
A-14-12-12-12-12-12-12-12-12-|
E----10-10-10-10-10-10-10-10-|

e--9--8--9--8--9--8--9--8-7--8-7--8--9--8--9--8-|
B--9--8--9--8--9--8--9--8-7--8-7--8--9--8--9--8-|
G-10--9-10--9-10--9-10--9-8--9-8--9-10--9-10--9-|
D-11-10-11-10-11-10-11-10-9-10-9-10-11-10-11-10-|
A-11-10-11-10-11-10-11-10-9-10-9-10-11-10-11-10-|
E--9--8--9--8--9--8--9--8-7--8-7--8--9--8--9--8-|

Solo

e-7-5-----------------7-5-----------------7-5-----------------|
B-----8-6-3-6-6-3-6-3-----8-6-3-6-6-3-6-3-----8-6-3-6-6-3-6-3-|
G-------------------------------------------------------------|
D-------------------------------------------------------------|
A-------------------------------------------------------------|
E-------------------------------------------------------------|

e-----------------------|
B-8-8-8-8-8-8-8-7-7-5-5-|
G-----------------------|
D-----------------------|
A-----------------------|
E-----------------------|

Pre Verse

e-7-7-7-7-7-5-5-5-5-5-|
B-7-7-7-7-9-5-5-5-5-5-|
G-8-8-8-8-9-6-6-6-6-6-|
D-9-9-9-9-9-7-7-7-7-7-|
A-9-9-9-9-7-7-7-7-7-7-|
E-7-7-7-7---5-5-5-5-5-|

e-7-7-7-7-7-5-5-5-5-5-|
B-7-7-7-7-9-5-5-5-5-5-|
G-8-8-8-8-9-6-6-6-6-6-|
D-9-9-9-9-9-7-7-7-7-7-|
A-9-9-9-9-7-7-7-7-7-7-|
E-7-7-7-7---5-5-5-5-5-|

e-7-7-7-7-7-5-5-5-5-5-|
B-7-7-7-7-9-5-5-5-5-5-|
G-8-8-8-8-9-6-6-6-6-6-|
D-9-9-9-9-9-7-7-7-7-7-|
A-9-9-9-9-7-7-7-7-7-7-|
E-7-7-7-7---5-5-5-5-5-|

e-7-7-7-7-7-5-5-5-5-5-|
B-7-7-7-7-9-5-5-5-5-5-|
G-8-8-8-8-9-6-6-6-6-6-|
D-9-9-9-9-9-7-7-7-7-7-|
A-9-9-9-9-7-7-7-7-7-7-|
E-7-7-7-7---5-5-5-5-5-|

e-7-7-7-7-7-5-5-5-5-5-|
B-7-7-7-7-9-5-5-5-5-5-|
G-8-8-8-8-9-6-6-6-6-6-|
D-9-9-9-9-9-7-7-7-7-7-|
A-9-9-9-9-7-7-7-7-7-7-|
E-7-7-7-7---5-5-5-5-5-|

e-7-7-7-7-7-5-5-5-5-5-|
B-7-7-7-7-9-5-5-5-5-5-|
G-8-8-8-8-9-6-6-6-6-6-|
D-9-9-9-9-9-7-7-7-7-7-|
A-9-9-9-9-7-7-7-7-7-7-|
E-7-7-7-7---5-5-5-5-5-|

e-7-7-7-7-7-5-5-5-5-5-|
B-7-7-7-7-9-5-5-5-5-5-|
G-8-8-8-8-9-6-6-6-6-6-|
D-9-9-9-9-9-7-7-7-7-7-|
A-9-9-9-9-7-7-7-7-7-7-|
E-7-7-7-7---5-5-5-5-5-|

e-7-7-7-7-7-5-5-5-5-5-|
B-7-7-7-7-9-5-5-5-5-5-|
G-8-8-8-8-9-6-6-6-6-6-|
D-9-9-9-9-9-7-7-7-7-7-|
A-9-9-9-9-7-7-7-7-7-7-|
E-7-7-7-7---5-5-5-5-5-|

Verse

e-7-7-7-7-7-5-5-5-5-5-|
B-7-7-7-7-9-5-5-5-5-5-|
G-8-8-8-8-9-6-6-6-6-6-|
D-9-9-9-9-9-7-7-7-7-7-|
A-9-9-9-9-7-7-7-7-7-7-|
E-7-7-7-7---5-5-5-5-5-|

e-7-7-7-7-7-5-5-5-5-5-|
B-7-7-7-7-9-5-5-5-5-5-|
G-8-8-8-8-9-6-6-6-6-6-|
D-9-9-9-9-9-7-7-7-7-7-|
A-9-9-9-9-7-7-7-7-7-7-|
E-7-7-7-7---5-5-5-5-5-|

e-7-7-7-7-7-5-5-5-5-5-|
B-7-7-7-7-9-5-5-5-5-5-|
G-8-8-8-8-9-6-6-6-6-6-|
D-9-9-9-9-9-7-7-7-7-7-|
A-9-9-9-9-7-7-7-7-7-7-|
E-7-7-7-7---5-5-5-5-5-|

e-7-7-7-7-7-5-5-5-5-5-|
B-7-7-7-7-9-5-5-5-5-5-|
G-8-8-8-8-9-6-6-6-6-6-|
D-9-9-9-9-9-7-7-7-7-7-|
A-9-9-9-9-7-7-7-7-7-7-|
E-7-7-7-7---5-5-5-5-5-|

Chorus

e-7-7-7-7-7-5-5-x-x-10--9--8-|
B-7-7-7-7-9-5-5-x-x-10--9--8-|
G-8-8-8-8-9-6-6-x-x-11-10--9-|
D-9-9-9-9-9-7-7-x-x-12-11-10-|
A-9-9-9-9-7-7-7-x-x-12-11-10-|
E-7-7-7-7---5-5-x-x-10--9--8-|

e-7-7-7-7-7-5-5-x-x-10--9--8-|
B-7-7-7-7-9-5-5-x-x-10--9--8-|
G-8-8-8-8-9-6-6-x-x-11-10--9-|
D-9-9-9-9-9-7-7-x-x-12-11-10-|
A-9-9-9-9-7-7-7-x-x-12-11-10-|
E-7-7-7-7---5-5-x-x-10--9--8-|

e-7-7-7-7-7-5-5-x-x-10--9--8-|
B-7-7-7-7-9-5-5-x-x-10--9--8-|
G-8-8-8-8-9-6-6-x-x-11-10--9-|
D-9-9-9-9-9-7-7-x-x-12-11-10-|
A-9-9-9-9-7-7-7-x-x-12-11-10-|
E-7-7-7-7---5-5-x-x-10--9--8-|

e-7-7-7-7-7-5-5-x-x-10--9--8-|
B-7-7-7-7-9-5-5-x-x-10--9--8-|
G-8-8-8-8-9-6-6-x-x-11-10--9-|
D-9-9-9-9-9-7-7-x-x-12-11-10-|
A-9-9-9-9-7-7-7-x-x-12-11-10-|
E-7-7-7-7---5-5-x-x-10--9--8-|

Outro

e-7-7-7-7-7-5-5-5-5-5-|
B-7-7-7-7-9-5-5-5-5-5-|
G-8-8-8-8-9-6-6-6-6-6-|
D-9-9-9-9-9-7-7-7-7-7-|
A-9-9-9-9-7-7-7-7-7-7-|
E-7-7-7-7---5-5-5-5-5-|

e-7-7-7-7-7-5-5-5-5-5-|
B-7-7-7-7-9-5-5-5-5-5-|
G-8-8-8-8-9-6-6-6-6-6-|
D-9-9-9-9-9-7-7-7-7-7-|
A-9-9-9-9-7-7-7-7-7-7-|
E-7-7-7-7---5-5-5-5-5-|

e-7-7-7-7-7-5-5-5-5-5-|
B-7-7-7-7-9-5-5-5-5-5-|
G-8-8-8-8-9-6-6-6-6-6-|
D-9-9-9-9-9-7-7-7-7-7-|
A-9-9-9-9-7-7-7-7-7-7-|
E-7-7-7-7---5-5-5-5-5-|

e-7-7-7-7-7-5-5-5-5-5-|
B-7-7-7-7-9-5-5-5-5-5-|
G-8-8-8-8-9-6-6-6-6-6-|
D-9-9-9-9-9-7-7-7-7-7-|
A-9-9-9-9-7-7-7-7-7-7-|
E-7-7-7-7---5-5-5-5-5-|

e-----------------------5-|
B-8-8-8-8-8-8-8-7-7-5-5-7-|
G-----------------------7-|
D-----------------------7-|
A-----------------------5-|
E-------------------------|

Anthony's Parts

Intro
                           1/4
e-/12-12----11----10----9-7-6-12----11----10----9-7-7-7-6-6-6-|
B-/12----12----12----12----------12----12----12---------------|
G-------------------------------------------------------------|
D-------------------------------------------------------------|
A-------------------------------------------------------------|
E-------------------------------------------------------------|


e-12-12-11-11-10-10-9-9-12-12-11-11-10-10-9-9-|
B---------------------------------------------|
G---------------------------------------------|
D---------------------------------------------|
A---------------------------------------------|
E---------------------------------------------|

e-12-12-11-11-10-10-9-9-12-12-11-11-10-10-9-9-|
B---------------------------------------------|
G---------------------------------------------|
D---------------------------------------------|
A---------------------------------------------|
E---------------------------------------------|

Pre Verse

e--------------------------------------|
B-9-7-7-7-7-7-7-7-7--9-7-7-7-7-7-7-7-7-|
G-----6-7-6-7-6-7-6------7-7-6-4-4-4-4-|
D--------------------------------------|
A--------------------------------------|
E--------------------------------------|

e--------------------------------------|
B-9-7-7-7-7-7-7-7-7--9-7-7-7-7-7-7-7-7-|
G-----6-7-6-7-6-7-6------7-7-6-4-4-4-4-|
D--------------------------------------|
A--------------------------------------|
E--------------------------------------|

Verse 1

Pre Chorus

e-10------10-------9----7----5-----|
B-12------12------11----9----7-----|
G-12------12------11----9----7-----|
D-12------12------11----9----7-----|
A-10------12-------9----7----5-----|
E----------------------------------|

Chorus
 In Time with Carl's parts of the same chord

e-7-7-7-7-7-5-5-|
B-7-7-7-7-9-5-5-|
G-8-8-8-8-9-6-6-|
D-9-9-9-9-9-7-7-|
A-9-9-9-9-7-7-7-|
E-7-7-7-7---5-5-|

e--------------------------------------|
B-9-7-7-7-7-7-7-7-7--9-7-7-7-7-7-7-7-7-|
G-----6-7-6-7-6-7-6------7-7-6-4-4-4-4-|
D--------------------------------------|
A--------------------------------------|
E--------------------------------------|

Verse 2

Pre Chorus

e-10------10-------9----7----5-----|
B-12------12------11----9----7-----|
G-12------12------11----9----7-----|
D-12------12------11----9----7-----|
A-10------12-------9----7----5-----|
E----------------------------------|

Chorus
 In Time with Carl's parts of the same chord

e-7-7-7-7-7-5-5-|
B-7-7-7-7-9-5-5-|
G-8-8-8-8-9-6-6-|
D-9-9-9-9-9-7-7-|
A-9-9-9-9-7-7-7-|
E-7-7-7-7---5-5-|

Bridge

e--9--9--9--9--9-12-|
B-11-11-11-11-11-14-|
G-11-11-11-11-11-14-|
D-11-11-11-11-11-14-|
A--9--9--9--9--9-12-|
E-------------------|

e-12-12-12-12-12-12-12-12-12-12-12-12-12-12-12-12-|
B-12-12-12-12-12-12-12-12-12-12-12-12-12-12-12-12-|
G-13-13-13-13-13-13-13-13-13-13-13-13-13-13-13-13-|
D-14-14-14-14-14-14-14-14-14-14-14-14-14-14-14-14-|
A-14-14-14-14-14-14-14-14-14-14-14-14-14-14-14-14-|
E-12-12-12-12-12-12-12-12-12-12-12-12-12-12-12-12-|

e-14-10-10-10-10-10-10-10-10-|
B-16-10-10-10-10-10-10-10-10-|
G-16-11-11-11-11-11-11-11-11-|
D-16-12-12-12-12-12-12-12-12-|
A-14-12-12-12-12-12-12-12-12-|
E----10-10-10-10-10-10-10-10-|

e--9--8--9--8--9--8--9--8-7--8-7--8--9--8--9--8-|
B--9--8--9--8--9--8--9--8-7--8-7--8--9--8--9--8-|
G-10--9-10--9-10--9-10--9-8--9-8--9-10--9-10--9-|
D-11-10-11-10-11-10-11-10-9-10-9-10-11-10-11-10-|
A-11-10-11-10-11-10-11-10-9-10-9-10-11-10-11-10-|
E--9--8--9--8--9--8--9--8-7--8-7--8--9--8--9--8-|

Solo

e-7-7-7-7-7-5-5-5-5-5-|
B-7-7-7-7-9-5-5-5-5-5-|
G-8-8-8-8-9-6-6-6-6-6-|
D-9-9-9-9-9-7-7-7-7-7-|
A-9-9-9-9-7-7-7-7-7-7-|
E-7-7-7-7---5-5-5-5-5-|

e-7-7-7-7-7-5-5-5-5-5-|
B-7-7-7-7-9-5-5-5-5-5-|
G-8-8-8-8-9-6-6-6-6-6-|
D-9-9-9-9-9-7-7-7-7-7-|
A-9-9-9-9-7-7-7-7-7-7-|
E-7-7-7-7---5-5-5-5-5-|

e-7-7-7-7-7-5-5-5-5-5-|
B-7-7-7-7-9-5-5-5-5-5-|
G-8-8-8-8-9-6-6-6-6-6-|
D-9-9-9-9-9-7-7-7-7-7-|
A-9-9-9-9-7-7-7-7-7-7-|
E-7-7-7-7---5-5-5-5-5-|

e-7-7-7-7-7-5-5-5-5-5-|
B-7-7-7-7-9-5-5-5-5-5-|
G-8-8-8-8-9-6-6-6-6-6-|
D-9-9-9-9-9-7-7-7-7-7-|
A-9-9-9-9-7-7-7-7-7-7-|
E-7-7-7-7---5-5-5-5-5-|

Pre verse

e--------------------------------------|
B-9-7-7-7-7-7-7-7-7--9-7-7-7-7-7-7-7-7-|
G-----6-7-6-7-6-7-6------7-7-6-4-4-4-4-|
D--------------------------------------|
A--------------------------------------|
E--------------------------------------|

e--------------------------------------|
B-9-7-7-7-7-7-7-7-7--9-7-7-7-7-7-7-7-7-|
G-----6-7-6-7-6-7-6------7-7-6-4-4-4-4-|
D--------------------------------------|
A--------------------------------------|
E--------------------------------------|

Verse 3

Chorus
 In Time with Carl's parts of the same chord

e-7-7-7-7-7-5-5-|
B-7-7-7-7-9-5-5-|
G-8-8-8-8-9-6-6-|
D-9-9-9-9-9-7-7-|
A-9-9-9-9-7-7-7-|
E-7-7-7-7---5-5-|

Outro

e-----------------------5-|
B-8-8-8-8-8-8-8-7-7-5-5-7-|
G-----------------------7-|
D-----------------------7-|
A-----------------------5-|
E-------------------------|

Iíve been chasing a dream
Round a dirty little room
Iíve been lacing up my coffee
and screaming at the moon

Its no good for my health
I cant rate-rape myself
And if I can shake off this feeling
Then Iíll be there with you soon

I need a lover a lover whoís kind
If you love a woman you mustnít beat her
And if shes got a lover Iíd like to meet her

The instinct I have is to kill the thing I love
And it seems to come so natural
I can never never get enough
And I know that she is wise
And sheís the apple of my eye
Sheís my dirty pretty lover
And I want her at my side

I need a lover a lover whoís kind
If you love a woman you mustnít beat her
And if you love another Iíd like to meet her

What a silly way to go
Mess up the only thing you know
And its rough itís rum
It makes me feel so numb
Oh no oh no oh no no no
La la la la

Iíve been chasing round my room for this dirty little dream
Iíve been eyeing up your cigarettes and screaming at the queen
Itís not good for my health
I cant rate-rape myself
And if I donít shake off this feeling
Then Iíll be there with you soon

I need a lover a lover whos kind
If you love a woman you mustnít beat her
And if you love another Iíd like to meet her

If you love a woman no you mustnít beat her
If you know I love her oh Iíd like to meet her
If she has a brother oooh la la laaa

A lover who's kind

Im not sure on this song either any corrections PM me.


You Fucking Love It

Carl's Parts

Intro

Verse 1

e-7-7-7-5-7-7-7-5-7-7-7-5-5-5-5-5-5-5-|
B-7-7-7-7-7-7-7-7-7-7-7-7-5-5-5-5-5-5-|
G-8-8-8-7-8-8-8-7-8-8-8-7-6-6-6-6-6-6-|
D-9-9-9-7-9-9-9-7-9-9-9-7-7-7-7-7-7-7-|
A-9-9-9-5-9-9-9-5-9-9-9-5-7-7-7-7-7-7-|
E-7-7-7---7-7-7---7-7-7---5-5-5-5-5-5-|

e-7-7-7-5-7-7-7-5-7-7-7-5-5-5-5-5-5-5-|
B-7-7-7-7-7-7-7-7-7-7-7-7-5-5-5-5-5-5-|
G-8-8-8-7-8-8-8-7-8-8-8-7-6-6-6-6-6-6-|
D-9-9-9-7-9-9-9-7-9-9-9-7-7-7-7-7-7-7-|
A-9-9-9-5-9-9-9-5-9-9-9-5-7-7-7-7-7-7-|
E-7-7-7---7-7-7---7-7-7---5-5-5-5-5-5-|

e-7-7-7-5-7-7-7-5-7-7-7-5-5-5-5-5-5-5-|
B-7-7-7-7-7-7-7-7-7-7-7-7-5-5-5-5-5-5-|
G-8-8-8-7-8-8-8-7-8-8-8-7-6-6-6-6-6-6-|
D-9-9-9-7-9-9-9-7-9-9-9-7-7-7-7-7-7-7-|
A-9-9-9-5-9-9-9-5-9-9-9-5-7-7-7-7-7-7-|
E-7-7-7---7-7-7---7-7-7---5-5-5-5-5-5-|

e-7-7-7-5-7-7-7-5-7-7-7-5-5-5-5-5-5-5-|
B-7-7-7-7-7-7-7-7-7-7-7-7-5-5-5-5-5-5-|
G-8-8-8-7-8-8-8-7-8-8-8-7-6-6-6-6-6-6-|
D-9-9-9-7-9-9-9-7-9-9-9-7-7-7-7-7-7-7-|
A-9-9-9-5-9-9-9-5-9-9-9-5-7-7-7-7-7-7-|
E-7-7-7---7-7-7---7-7-7---5-5-5-5-5-5-|

Chorus

e-7-7-7-5-7-5-3-3-3-1-3-1-7-7-7-7-7-7-7-7-7-7-|
B-7-7-7-5-7-5-3-3-3-1-3-1-7-7-7-7-7-7-7-7-7-7-|
G-8-8-8-6-8-6-4-4-4-2-4-2-8-8-8-8-8-8-8-8-8-8-|
D-9-9-9-7-9-7-5-5-5-3-5-3-9-9-9-9-9-9-9-9-9-9-|
A-9-9-9-7-9-7-5-5-5-3-5-3-9-9-9-9-9-9-9-9-9-9-|
E-7-7-7-5-7-5-3-3-3-1-3-1-7-7-7-7-7-7-7-7-7-7-|

e-7-7-7-5-7-5-3-3-3-1-3-1-7-7-7-7-7-7-7-7-7-7-|
B-7-7-7-5-7-5-3-3-3-1-3-1-7-7-7-7-7-7-7-7-7-7-|
G-8-8-8-6-8-6-4-4-4-2-4-2-8-8-8-8-8-8-8-8-8-8-|
D-9-9-9-7-9-7-5-5-5-3-5-3-9-9-9-9-9-9-9-9-9-9-|
A-9-9-9-7-9-7-5-5-5-3-5-3-9-9-9-9-9-9-9-9-9-9-|
E-7-7-7-5-7-5-3-3-3-1-3-1-7-7-7-7-7-7-7-7-7-7-|

Pre Verse

Verse 2

e-7-7-7-5-7-7-7-5-7-7-7-5-5-5-5-5-5-5-|
B-7-7-7-7-7-7-7-7-7-7-7-7-5-5-5-5-5-5-|
G-8-8-8-7-8-8-8-7-8-8-8-7-6-6-6-6-6-6-|
D-9-9-9-7-9-9-9-7-9-9-9-7-7-7-7-7-7-7-|
A-9-9-9-5-9-9-9-5-9-9-9-5-7-7-7-7-7-7-|
E-7-7-7---7-7-7---7-7-7---5-5-5-5-5-5-|

e-7-7-7-5-7-7-7-5-7-7-7-5-5-5-5-5-5-5-|
B-7-7-7-7-7-7-7-7-7-7-7-7-5-5-5-5-5-5-|
G-8-8-8-7-8-8-8-7-8-8-8-7-6-6-6-6-6-6-|
D-9-9-9-7-9-9-9-7-9-9-9-7-7-7-7-7-7-7-|
A-9-9-9-5-9-9-9-5-9-9-9-5-7-7-7-7-7-7-|
E-7-7-7---7-7-7---7-7-7---5-5-5-5-5-5-|

Chorus

e-7-7-7-5-7-5-3-3-3-1-3-1-7-7-7-7-7-7-7-7-7-7-|
B-7-7-7-5-7-5-3-3-3-1-3-1-7-7-7-7-7-7-7-7-7-7-|
G-8-8-8-6-8-6-4-4-4-2-4-2-8-8-8-8-8-8-8-8-8-8-|
D-9-9-9-7-9-7-5-5-5-3-5-3-9-9-9-9-9-9-9-9-9-9-|
A-9-9-9-7-9-7-5-5-5-3-5-3-9-9-9-9-9-9-9-9-9-9-|
E-7-7-7-5-7-5-3-3-3-1-3-1-7-7-7-7-7-7-7-7-7-7-|

e-7-7-7-5-7-5-3-3-3-1-3-1-7-7-7-7-7-7-7-7-7-7-|
B-7-7-7-5-7-5-3-3-3-1-3-1-7-7-7-7-7-7-7-7-7-7-|
G-8-8-8-6-8-6-4-4-4-2-4-2-8-8-8-8-8-8-8-8-8-8-|
D-9-9-9-7-9-7-5-5-5-3-5-3-9-9-9-9-9-9-9-9-9-9-|
A-9-9-9-7-9-7-5-5-5-3-5-3-9-9-9-9-9-9-9-9-9-9-|
E-7-7-7-5-7-5-3-3-3-1-3-1-7-7-7-7-7-7-7-7-7-7-|

Bridge

e-7----7-----7------7----9--9--9--9--9--9--9--9--9--9--9--9--9--9--9-|
B-7----9-----7------9----9--9--9--9--9--9--9--9--9--9--9--9--9--9--9-|
G-8----9-----8------9---10-10-10-10-10-10-10-10-10-10-10-10-10-10-10-|
D-9----9-----9------9---11-11-11-11-11-11-11-11-11-11-11-11-11-11-11-|
A-9----7-----9------7---11-11-11-11-11-11-11-11-11-11-11-11-11-11-11-|
E-7----------7-----------9--9--9--9--9--9--9--9--9--9--9--9--9--9--9-|

Solo

e----------------------------------------|
B-12-12-12-10-12-12-12-10-12-12-12-10----|
G-------------------------------------11-|
D----------------------------------------|
A----------------------------------------|
E----------------------------------------|

e---------------------------------------------------------9-9-9-9-9-9-9-9-|
B-9-9-9-9-9-9-9-11-11-11-11-11-11-11-12-12-12-12-12-12-12-----------------|
G-------------------------------------------------------------------------|
D-------------------------------------------------------------------------|
A-------------------------------------------------------------------------|
E-------------------------------------------------------------------------|

e-----12-12-----12-12-----12-12----14b-b-br-12------12-12-----12-12-|
B-12b-------12b-------12b-------12--------------12b-------12b-------|
G-------------------------------------------------------------------|
D-------------------------------------------------------------------|
A-------------------------------------------------------------------|
E-------------------------------------------------------------------|

e-12-12-12-12-14-14-14-14-16-16-16-16--/19\\\\\\0-|
B-------------------------------------------------|
G-------------------------------------------------|
D-------------------------------------------------|
A-------------------------------------------------|
E-------------------------------------------------|

Chorus

e-7-7-7-5-7-5-3-3-3-1-3-1-7-7-7-7-7-7-7-7-7-7-|
B-7-7-7-5-7-5-3-3-3-1-3-1-7-7-7-7-7-7-7-7-7-7-|
G-8-8-8-6-8-6-4-4-4-2-4-2-8-8-8-8-8-8-8-8-8-8-|
D-9-9-9-7-9-7-5-5-5-3-5-3-9-9-9-9-9-9-9-9-9-9-|
A-9-9-9-7-9-7-5-5-5-3-5-3-9-9-9-9-9-9-9-9-9-9-|
E-7-7-7-5-7-5-3-3-3-1-3-1-7-7-7-7-7-7-7-7-7-7-|

e-7-7-7-5-7-5-3-3-3-1-3-1-7-7-7-7-7-7-7-7-7-7-|
B-7-7-7-5-7-5-3-3-3-1-3-1-7-7-7-7-7-7-7-7-7-7-|
G-8-8-8-6-8-6-4-4-4-2-4-2-8-8-8-8-8-8-8-8-8-8-|
D-9-9-9-7-9-7-5-5-5-3-5-3-9-9-9-9-9-9-9-9-9-9-|
A-9-9-9-7-9-7-5-5-5-3-5-3-9-9-9-9-9-9-9-9-9-9-|
E-7-7-7-5-7-5-3-3-3-1-3-1-7-7-7-7-7-7-7-7-7-7-|

Break

e-7-7-7-7-7-7--7-7-7-7-7-7--7-7-7-7-7-7-7--7-7-7-7-7-7-|
B-7-7-7-7-7-7--9-9-9-9-9-9--7-7-7-7-7-7-7--9-9-9-9-9-9-|
G-8-8-8-8-8-8--9-9-9-9-9-9--8-8-8-8-8-8-8--9-9-9-9-9-9-|
D-9-9-9-9-9-9--9-9-9-9-9-9--9-9-9-9-9-9-9--9-9-9-9-9-9-|
A-9-9-9-9-9-9--7-7-7-7-7-7--9-9-9-9-9-9-9--7-7-7-7-7-7-|
E-7-7-7-7-7-7---------------7-7-7-7-7-7-7--------------|

e--9--9--9--9--9--9--9--9--9--9--9--9--9--9--9--9--9--9--9--9--9--9--9--9-|
B--9--9--9--9--9--9--9--9--9--9--9--9--9--9--9--9--9--9--9--9--9--9--9--9-|
G-10-10-10-10-10-10-10-10-10-10-10-10-10-10-10-10-10-10-10-10-10-10-10-10-|
D-11-11-11-11-11-11-11-11-11-11-11-11-11-11-11-11-11-11-11-11-11-11-11-11-|
A-11-11-11-11-11-11-11-11-11-11-11-11-11-11-11-11-11-11-11-11-11-11-11-11-|
E--9--9--9--9--9--9--9--9--9--9--9--9--9--9--9--9--9--9--9--9--9--9--9--9-|

Outro

e-2-
B-4-
G-4-
D-4-
A-2-
E---


Anthony's Parts

Intro

e-7-7-7-7-7-7-7-7-7-7-7-5-|
B-7-7-9-7-7-7-9-7-7-7-9-5-|
G-8-8-9-8-8-8-9-8-8-8-9-6-|
D-9-9-9-9-9-9-9-9-9-9-9-7-|
A-9-9-7-9-9-9-7-9-9-9-7-7-|
E-7-7---7-7-7---7-7-7---5-|

Verse 1

e-7-7-7-5-7-7-7-5-7-7-7-5-5-5-5-5-5-5-|
B-7-7-7-7-7-7-7-7-7-7-7-7-5-5-5-5-5-5-|
G-8-8-8-7-8-8-8-7-8-8-8-7-6-6-6-6-6-6-|
D-9-9-9-7-9-9-9-7-9-9-9-7-7-7-7-7-7-7-|
A-9-9-9-5-9-9-9-5-9-9-9-5-7-7-7-7-7-7-|
E-7-7-7---7-7-7---7-7-7---5-5-5-5-5-5-|

e-7-7-7-5-7-7-7-5-7-7-7-5-5-5-5-5-5-5-|
B-7-7-7-7-7-7-7-7-7-7-7-7-5-5-5-5-5-5-|
G-8-8-8-7-8-8-8-7-8-8-8-7-6-6-6-6-6-6-|
D-9-9-9-7-9-9-9-7-9-9-9-7-7-7-7-7-7-7-|
A-9-9-9-5-9-9-9-5-9-9-9-5-7-7-7-7-7-7-|
E-7-7-7---7-7-7---7-7-7---5-5-5-5-5-5-|

e-7-7-7-5-7-7-7-5-7-7-7-5-5-5-5-5-5-5-|
B-7-7-7-7-7-7-7-7-7-7-7-7-5-5-5-5-5-5-|
G-8-8-8-7-8-8-8-7-8-8-8-7-6-6-6-6-6-6-|
D-9-9-9-7-9-9-9-7-9-9-9-7-7-7-7-7-7-7-|
A-9-9-9-5-9-9-9-5-9-9-9-5-7-7-7-7-7-7-|
E-7-7-7---7-7-7---7-7-7---5-5-5-5-5-5-|

e-7-7-7-5-7-7-7-5-7-7-7-5-5-5-5-5-5-5-|
B-7-7-7-7-7-7-7-7-7-7-7-7-5-5-5-5-5-5-|
G-8-8-8-7-8-8-8-7-8-8-8-7-6-6-6-6-6-6-|
D-9-9-9-7-9-9-9-7-9-9-9-7-7-7-7-7-7-7-|
A-9-9-9-5-9-9-9-5-9-9-9-5-7-7-7-7-7-7-|
E-7-7-7---7-7-7---7-7-7---5-5-5-5-5-5-|

Chorus

e-7-7-7-5-7-5-3-3-3-1-3-1-7-7-7-7-7-7-7-7-7-7-|
B-7-7-7-5-7-5-3-3-3-1-3-1-7-7-7-7-7-7-7-7-7-7-|
G-8-8-8-6-8-6-4-4-4-2-4-2-8-8-8-8-8-8-8-8-8-8-|
D-9-9-9-7-9-7-5-5-5-3-5-3-9-9-9-9-9-9-9-9-9-9-|
A-9-9-9-7-9-7-5-5-5-3-5-3-9-9-9-9-9-9-9-9-9-9-|
E-7-7-7-5-7-5-3-3-3-1-3-1-7-7-7-7-7-7-7-7-7-7-|

e-7-7-7-5-7-5-3-3-3-1-3-1-7-7-7-7-7-7-7-7-7-7-|
B-7-7-7-5-7-5-3-3-3-1-3-1-7-7-7-7-7-7-7-7-7-7-|
G-8-8-8-6-8-6-4-4-4-2-4-2-8-8-8-8-8-8-8-8-8-8-|
D-9-9-9-7-9-7-5-5-5-3-5-3-9-9-9-9-9-9-9-9-9-9-|
A-9-9-9-7-9-7-5-5-5-3-5-3-9-9-9-9-9-9-9-9-9-9-|
E-7-7-7-5-7-5-3-3-3-1-3-1-7-7-7-7-7-7-7-7-7-7-|

Break

e-7-7-5-7-7-7-5-7-7-5-7b-7b-7b-7b-7b-|
B-7-7-6-7-7-7-6-7-7-6-9b-9b-9b-9b-9b-|
G-8-8-7-8-8-8-7-8-8-7-9b-9b-9b-9b-9b-|
D-9-9-7-9-9-9-7-9-9-7-9b-9b-9b-9b-9b-|
A-9-9-5-9-9-9-5-9-9-5-7b-7b-7b-7b-7b-|
E-7-7---7-7-7---7-7------------------|

Verse 2

e-7-7-7-5-7-7-7-5-7-7-7-5-5-5-5-5-5-5-|
B-7-7-7-7-7-7-7-7-7-7-7-7-5-5-5-5-5-5-|
G-8-8-8-7-8-8-8-7-8-8-8-7-6-6-6-6-6-6-|
D-9-9-9-7-9-9-9-7-9-9-9-7-7-7-7-7-7-7-|
A-9-9-9-5-9-9-9-5-9-9-9-5-7-7-7-7-7-7-|
E-7-7-7---7-7-7---7-7-7---5-5-5-5-5-5-|

e-7-7-7-5-7-7-7-5-7-7-7-5-5-5-5-5-5-5-|
B-7-7-7-7-7-7-7-7-7-7-7-7-5-5-5-5-5-5-|
G-8-8-8-7-8-8-8-7-8-8-8-7-6-6-6-6-6-6-|
D-9-9-9-7-9-9-9-7-9-9-9-7-7-7-7-7-7-7-|
A-9-9-9-5-9-9-9-5-9-9-9-5-7-7-7-7-7-7-|
E-7-7-7---7-7-7---7-7-7---5-5-5-5-5-5-|

Chorus

e-7-7-7-5-7-5-3-3-3-1-3-1-7-7-7-7-7-7-7-7-7-7-|
B-7-7-7-5-7-5-3-3-3-1-3-1-7-7-7-7-7-7-7-7-7-7-|
G-8-8-8-6-8-6-4-4-4-2-4-2-8-8-8-8-8-8-8-8-8-8-|
D-9-9-9-7-9-7-5-5-5-3-5-3-9-9-9-9-9-9-9-9-9-9-|
A-9-9-9-7-9-7-5-5-5-3-5-3-9-9-9-9-9-9-9-9-9-9-|
E-7-7-7-5-7-5-3-3-3-1-3-1-7-7-7-7-7-7-7-7-7-7-|

e-7-7-7-5-7-5-3-3-3-1-3-1-7-7-7-7-7-7-7-7-7-7-|
B-7-7-7-5-7-5-3-3-3-1-3-1-7-7-7-7-7-7-7-7-7-7-|
G-8-8-8-6-8-6-4-4-4-2-4-2-8-8-8-8-8-8-8-8-8-8-|
D-9-9-9-7-9-7-5-5-5-3-5-3-9-9-9-9-9-9-9-9-9-9-|
A-9-9-9-7-9-7-5-5-5-3-5-3-9-9-9-9-9-9-9-9-9-9-|
E-7-7-7-5-7-5-3-3-3-1-3-1-7-7-7-7-7-7-7-7-7-7-|

Bridge

e-7----7-----7------7----9--9--9--9--9--9--9--9--9--9--9--9--9--9--9-|
B-7----9-----7------9----9--9--9--9--9--9--9--9--9--9--9--9--9--9--9-|
G-8----9-----8------9---10-10-10-10-10-10-10-10-10-10-10-10-10-10-10-|
D-9----9-----9------9---11-11-11-11-11-11-11-11-11-11-11-11-11-11-11-|
A-9----7-----9------7---11-11-11-11-11-11-11-11-11-11-11-11-11-11-11-|
E-7----------7-----------9--9--9--9--9--9--9--9--9--9--9--9--9--9--9-|

Solo

e-7-7-7-5-7-7-7-5-7-7-7-5-5-5-5-5-5-5-|
B-7-7-7-7-7-7-7-7-7-7-7-7-5-5-5-5-5-5-|
G-8-8-8-7-8-8-8-7-8-8-8-7-6-6-6-6-6-6-|
D-9-9-9-7-9-9-9-7-9-9-9-7-7-7-7-7-7-7-|
A-9-9-9-5-9-9-9-5-9-9-9-5-7-7-7-7-7-7-|
E-7-7-7---7-7-7---7-7-7---5-5-5-5-5-5-|

e-7-7-7-5-7-7-7-5-7-7-7-5-5-5-5-5-5-5-|
B-7-7-7-7-7-7-7-7-7-7-7-7-5-5-5-5-5-5-|
G-8-8-8-7-8-8-8-7-8-8-8-7-6-6-6-6-6-6-|
D-9-9-9-7-9-9-9-7-9-9-9-7-7-7-7-7-7-7-|
A-9-9-9-5-9-9-9-5-9-9-9-5-7-7-7-7-7-7-|
E-7-7-7---7-7-7---7-7-7---5-5-5-5-5-5-|

e-7-7-7-5-7-7-7-5-7-7-7-5-5-5-5-5-5-5-|
B-7-7-7-7-7-7-7-7-7-7-7-7-5-5-5-5-5-5-|
G-8-8-8-7-8-8-8-7-8-8-8-7-6-6-6-6-6-6-|
D-9-9-9-7-9-9-9-7-9-9-9-7-7-7-7-7-7-7-|
A-9-9-9-5-9-9-9-5-9-9-9-5-7-7-7-7-7-7-|
E-7-7-7---7-7-7---7-7-7---5-5-5-5-5-5-|

e-7-7-7-5-7-7-7-5-7-7-7-5-5-5-5-5-5-5-|
B-7-7-7-7-7-7-7-7-7-7-7-7-5-5-5-5-5-5-|
G-8-8-8-7-8-8-8-7-8-8-8-7-6-6-6-6-6-6-|
D-9-9-9-7-9-9-9-7-9-9-9-7-7-7-7-7-7-7-|
A-9-9-9-5-9-9-9-5-9-9-9-5-7-7-7-7-7-7-|
E-7-7-7---7-7-7---7-7-7---5-5-5-5-5-5-|

Chorus

e-7-7-7-5-7-5-3-3-3-1-3-1-7-7-7-7-7-7-7-7-7-7-|
B-7-7-7-5-7-5-3-3-3-1-3-1-7-7-7-7-7-7-7-7-7-7-|
G-8-8-8-6-8-6-4-4-4-2-4-2-8-8-8-8-8-8-8-8-8-8-|
D-9-9-9-7-9-7-5-5-5-3-5-3-9-9-9-9-9-9-9-9-9-9-|
A-9-9-9-7-9-7-5-5-5-3-5-3-9-9-9-9-9-9-9-9-9-9-|
E-7-7-7-5-7-5-3-3-3-1-3-1-7-7-7-7-7-7-7-7-7-7-|

e-7-7-7-5-7-5-3-3-3-1-3-1-7-7-7-7-7-7-7-7-7-7-|
B-7-7-7-5-7-5-3-3-3-1-3-1-7-7-7-7-7-7-7-7-7-7-|
G-8-8-8-6-8-6-4-4-4-2-4-2-8-8-8-8-8-8-8-8-8-8-|
D-9-9-9-7-9-7-5-5-5-3-5-3-9-9-9-9-9-9-9-9-9-9-|
A-9-9-9-7-9-7-5-5-5-3-5-3-9-9-9-9-9-9-9-9-9-9-|
E-7-7-7-5-7-5-3-3-3-1-3-1-7-7-7-7-7-7-7-7-7-7-|

Break

e-7-7-7-7-7-7--7-7-7-7-7-7--7-7-7-7-7-7-7--7-7-7-7-7-7-|
B-7-7-7-7-7-7--9-9-9-9-9-9--7-7-7-7-7-7-7--9-9-9-9-9-9-|
G-8-8-8-8-8-8--9-9-9-9-9-9--8-8-8-8-8-8-8--9-9-9-9-9-9-|
D-9-9-9-9-9-9--9-9-9-9-9-9--9-9-9-9-9-9-9--9-9-9-9-9-9-|
A-9-9-9-9-9-9--7-7-7-7-7-7--9-9-9-9-9-9-9--7-7-7-7-7-7-|
E-7-7-7-7-7-7---------------7-7-7-7-7-7-7--------------|

e--9--9--9--9--9--9--9--9--9--9--9--9--9--9--9--9--9--9--9--9--9--9--9--9-|
B--9--9--9--9--9--9--9--9--9--9--9--9--9--9--9--9--9--9--9--9--9--9--9--9-|
G-10-10-10-10-10-10-10-10-10-10-10-10-10-10-10-10-10-10-10-10-10-10-10-10-|
D-11-11-11-11-11-11-11-11-11-11-11-11-11-11-11-11-11-11-11-11-11-11-11-11-|
A-11-11-11-11-11-11-11-11-11-11-11-11-11-11-11-11-11-11-11-11-11-11-11-11-|
E--9--9--9--9--9--9--9--9--9--9--9--9--9--9--9--9--9--9--9--9--9--9--9--9-|

Outro

e-------------------------2-|
B-------------------------4-|
G-4-4-4-2-4-2-1-1-1-0-1-2-4-|
D-------------------------4-|
A-------------------------2-|
E---------------------------|

She could never ever ever ever ever ever ever get it into her thick head
So when pretending it ends she'll have scattered her friends
And sheíll find sheíll wake up dead
Thereís no card above receivers
Still its all so remote
Behind the bench at the rec
Where she lost fifty notes
(she says) ďI used to have a future
But now I donít know
Just dependence and repentance and a ready-brek glowĒ


Just put your money in
Bruised and battered shins
You fucking love it
You fucking love it
Back on your feet again
Out on the beat again,
You fucking love it
Yeah yeah yeah

Drunk as a skunk
Lean as a dean
Always the same
Since she was thirteen
You want it
You lame duck
You want it
Youre out of luck

Youíve always been a seedy fuck
So whats it gonna be?
Just put your money in
Bruised and battered shins
You fucking love it
You fucking love it
You fucking love it
Back on your feet again
Out on the beat again,
You fucking love it
Yeah yeah yeah


When you boil it down
We descend from clowns to dogs

I think i got this one decent any corrections PM me.


Wondering

Carl's Parts

Intro

e-------------------------------------------------------|
B-------------------------------------------------------|
G-7--9-7-\-2-7-----7-7-9-7-\------9----------7--9-7-\-2-|
D----------------------------7-10---10-9-10-------------|
A-------------------------------------------------------|
E-------------------------------------------------------|

e---------------------------------------------------------|
B---------------------------------------------------------|
G-5-5-5-5-5-2-0-0-0-0-0-0-0-0-0-0-12-12-12-12-12-12-12-12-|
D---------------------------------------------------------|
A---------------------------------------------------------|
E---------------------------------------------------------|

Pre Verse

e---------------------------------------------------------------------------------|
B-10-8-10-8---------8-10-8-10-8---------8-10-8-10-8---------8-10-8-10-8---------8-|
G-----------10-9-10-------------10-9-10-------------10-9-10-------------10-9-10---|
D---------------------------------------------------------------------------------|
A---------------------------------------------------------------------------------|
E---------------------------------------------------------------------------------|

e---------------------------------------------------------------------------------|
B-10-8-10-8---------8-10-8-10-8---------8-10-8-10-8---------8-10-8-10-8---------8-|
G-----------10-9-10-------------10-9-10-------------10-9-10-------------10-9-10---|
D---------------------------------------------------------------------------------|
A---------------------------------------------------------------------------------|
E---------------------------------------------------------------------------------|

verse 1

Chorus

e------------------------------------|
B-10-10-10-8-8-8-6-6-8-8-8-6-6-6-5-5-|
G------------------------------------|
D------------------------------------|
A------------------------------------|
E------------------------------------|

e------------------------------------|
B-10-10-10-8-8-8-6-6-8-8-8-6-6-6-5-5-|
G------------------------------------|
D------------------------------------|
A------------------------------------|
E------------------------------------|

e------------------------------------|
B-10-10-10-8-8-8-6-6-8-8-8-6-6-6-5-5-|
G------------------------------------|
D------------------------------------|
A------------------------------------|
E------------------------------------|

e------------------------------------|
B-10-10-10-8-8-8-6-6-8-8-8-6-6-6-5-5-|
G------------------------------------|
D------------------------------------|
A------------------------------------|
E------------------------------------|

Pre Verse

e---------------------------------------------------------------------------------|
B-10-8-10-8---------8-10-8-10-8---------8-10-8-10-8---------8-10-8-10-8---------8-|
G-----------10-9-10-------------10-9-10-------------10-9-10-------------10-9-10---|
D---------------------------------------------------------------------------------|
A---------------------------------------------------------------------------------|
E---------------------------------------------------------------------------------|

e---------------------------------------------------------------------------------|
B-10-8-10-8---------8-10-8-10-8---------8-10-8-10-8---------8-10-8-10-8---------8-|
G-----------10-9-10-------------10-9-10-------------10-9-10-------------10-9-10---|
D---------------------------------------------------------------------------------|
A---------------------------------------------------------------------------------|
E---------------------------------------------------------------------------------|

Verse 2

Chorus

e------------------------------------|
B-10-10-10-8-8-8-6-6-8-8-8-6-6-6-5-5-|
G------------------------------------|
D------------------------------------|
A------------------------------------|
E------------------------------------|

e------------------------------------|
B-10-10-10-8-8-8-6-6-8-8-8-6-6-6-5-5-|
G------------------------------------|
D------------------------------------|
A------------------------------------|
E------------------------------------|

e------------------------------------|
B-10-10-10-8-8-8-6-6-8-8-8-8-8-9-8-8-|
G------------------------------------|
D------------------------------------|
A------------------------------------|
E------------------------------------|

e------------------------------------|
B-10-10-10-8-8-8-6-6-8-8-8-6-6-6-5-5-|
G------------------------------------|
D------------------------------------|
A------------------------------------|
E------------------------------------|

e---------------|
B---------------|
G-8-8-8-8-8-9-8-|
D---------------|
A---------------|
E---------------|

Solo

e---------------------------|
B---------------------------|
G----------------------10-7-|
D-8-8-8-8------------7------|
A---------8-8-7-5-/8--------|
E---------------------------|

e---------------------------|
B---------------------------|
G----------------------10-7-|
D-8-8-8-8------------7------|
A---------8-8-7-5-/8--------|
E---------------------------|

e--------------------------|
B--------------------------|
G---------------------10-7-|
D-8----8------------7------|
A--------8-8-7-5-/8--------|
E--------------------------|

e---------------------------|
B---------------------------|
G----------------------10-7-|
D-8-8-8-8------------7------|
A---------8-8-7-5-/8--------|
E---------------------------|

Pre Verse

e---------------------------------------------------------------------------------|
B-10-8-10-8---------8-10-8-10-8---------8-10-8-10-8---------8-10-8-10-8---------8-|
G-----------10-9-10-------------10-9-10-------------10-9-10-------------10-9-10---|
D---------------------------------------------------------------------------------|
A---------------------------------------------------------------------------------|
E---------------------------------------------------------------------------------|

Verse 3

Chorus


e------------------------------------|
B-10-10-10-8-8-8-6-6-8-8-8-6-6-6-5-5-|
G------------------------------------|
D------------------------------------|
A------------------------------------|
E------------------------------------|

e------------------------------------|
B-10-10-10-8-8-8-6-6-8-8-8-6-6-6-5-5-|
G------------------------------------|
D------------------------------------|
A------------------------------------|
E------------------------------------|

e------------------------------------|
B-10-10-10-8-8-8-6-6-8-8-8-8-8-9-8-8-|
G------------------------------------|
D------------------------------------|
A------------------------------------|
E------------------------------------|

e------------------------------------|
B-10-10-10-8-8-8-6-6-8-8-8-6-6-6-5-5-|
G------------------------------------|
D------------------------------------|
A------------------------------------|
E------------------------------------|

e------------------------------------|
B-10-10-10-8-8-8-6-6-8-8-8-8-8-9-8-8-|
G------------------------------------|
D------------------------------------|
A------------------------------------|
E------------------------------------|

e------------------------------------|
B-10-10-10-8-8-8-6-6-8-8-8-6-6-6-5-5-|
G------------------------------------|
D------------------------------------|
A------------------------------------|
E------------------------------------|

e---------------|
B---------------|
G-8-8-8-8-8-9-8-|
D---------------|
A---------------|
E---------------|

Outro

e-------------------------------------------------------|
B-------------------------------------------------------|
G-7--9-7-\-2-7-----7-7-9-7-\------9----------7--9-7-\-2-|
D----------------------------7-10---10-9-10-------------|
A-------------------------------------------------------|
E-------------------------------------------------------|

e---------------------------------------------------------|
B---------------------------------------------------------|
G-5-5-5-5-5-2-0-0-0-0-0-0-0-0-0-0-12-12-12-12-12-12-12-12-|
D---------------------------------------------------------|
A---------------------------------------------------------|
E---------------------------------------------------------|


Antony's Parts

Intro

e-5-----5-----5----5----5-----5-------------7--7--7--7--7--7--7--7-|
B-6-----5-----6----5----6-----5-------------8--8--8--8--8--8--8--8-|
G-7-----5-----7----5----7-----5-------------7--7--7--7--7--7--7--7-|
D-7-----7-----7----7----7-----7----5-5-5-5--9--9--9--9--9--9--9--9-|
A-5-----7-----5----7----5-----7----5-5-5-5-10-10-10-10-10-10-10-10-|
E-------5----------5----------5----3-3-3-3--7--7--7--7--7--7--7--7-|

Pre Verse

e-5-5-5-5----5-5-5-5----5-5-5-5-5-5-5-5-5-5-|
B-6-6-6-6----6-6-6-6----7-7-7-7-5-7-7-7-7-5-|
G-5-5-5-5----5-5-5-5----7-7-7-7-6-7-7-7-7-6-|
D-7-7-7-7-10-7-7-7-7-10-7-7-7-7-7-7-7-7-7-7-|
A-8-8-8-8-10-8-8-8-8-10-5-5-5-5-7-5-5-5-5-7-|
E-5-5-5-5--8-5-5-5-5--8---------5---------5-|

e-5-5-5-5----5-5-5-5----5-5-5-5-5-5-5-5-5-5-|
B-6-6-6-6----6-6-6-6----7-7-7-7-5-7-7-7-7-5-|
G-5-5-5-5----5-5-5-5----7-7-7-7-6-7-7-7-7-6-|
D-7-7-7-7-10-7-7-7-7-10-7-7-7-7-7-7-7-7-7-7-|
A-8-8-8-8-10-8-8-8-8-10-5-5-5-5-7-5-5-5-5-7-|
E-5-5-5-5--8-5-5-5-5--8---------5---------5-|

Verse 1

e-5-5-5-5----5-5-5-5----5-5-5-5-5-5-5-5-5-5-|
B-6-6-6-6----6-6-6-6----7-7-7-7-5-7-7-7-7-5-|
G-5-5-5-5----5-5-5-5----7-7-7-7-6-7-7-7-7-6-|
D-7-7-7-7-10-7-7-7-7-10-7-7-7-7-7-7-7-7-7-7-|
A-8-8-8-8-10-8-8-8-8-10-5-5-5-5-7-5-5-5-5-7-|
E-5-5-5-5--8-5-5-5-5--8---------5---------5-|

e-5-5-5-5----5-5-5-5----5-5-5-5-5-5-5-5-5-5-|
B-6-6-6-6----6-6-6-6----7-7-7-7-5-7-7-7-7-5-|
G-5-5-5-5----5-5-5-5----7-7-7-7-6-7-7-7-7-6-|
D-7-7-7-7-10-7-7-7-7-10-7-7-7-7-7-7-7-7-7-7-|
A-8-8-8-8-10-8-8-8-8-10-5-5-5-5-7-5-5-5-5-7-|
E-5-5-5-5--8-5-5-5-5--8---------5---------5-|

Chorus

e-------------------------------------|
B-------------------------------------|
G-7-5-7-5-7-/-12-12-12-12-12-12-12-12-|
D-7-5-7-5-7-/-12-12-12-12-12-12-12-12-|
A-5-3-5-3-5-/-10-10-10-10-10-10-10-10-|
E-------------------------------------|

e-----------------------------|
B-----------------------------|
G-7-/-12-12-12-12-12-12-12-12-|
D-7-/-12-12-12-12-12-12-12-12-|
A-5-/-10-10-10-10-10-10-10-10-|
E-----------------------------|

Pre Verse

e-5-5-5-5----5-5-5-5----5-5-5-5-5-5-5-5-5-5-|
B-6-6-6-6----6-6-6-6----7-7-7-7-5-7-7-7-7-5-|
G-5-5-5-5----5-5-5-5----7-7-7-7-6-7-7-7-7-6-|
D-7-7-7-7-10-7-7-7-7-10-7-7-7-7-7-7-7-7-7-7-|
A-8-8-8-8-10-8-8-8-8-10-5-5-5-5-7-5-5-5-5-7-|
E-5-5-5-5--8-5-5-5-5--8---------5---------5-|

e-5-5-5-5----5-5-5-5----5-5-5-5-5-5-5-5-5-5-|
B-6-6-6-6----6-6-6-6----7-7-7-7-5-7-7-7-7-5-|
G-5-5-5-5----5-5-5-5----7-7-7-7-6-7-7-7-7-6-|
D-7-7-7-7-10-7-7-7-7-10-7-7-7-7-7-7-7-7-7-7-|
A-8-8-8-8-10-8-8-8-8-10-5-5-5-5-7-5-5-5-5-7-|
E-5-5-5-5--8-5-5-5-5--8---------5---------5-|

Verse 2

e-5-5-5-5----5-5-5-5----5-5-5-5-5-5-5-5-5-5-|
B-6-6-6-6----6-6-6-6----7-7-7-7-5-7-7-7-7-5-|
G-5-5-5-5----5-5-5-5----7-7-7-7-6-7-7-7-7-6-|
D-7-7-7-7-10-7-7-7-7-10-7-7-7-7-7-7-7-7-7-7-|
A-8-8-8-8-10-8-8-8-8-10-5-5-5-5-7-5-5-5-5-7-|
E-5-5-5-5--8-5-5-5-5--8---------5---------5-|

e-5-5-5-5----5-5-5-5----5-5-5-5-5-5-5-5-5-5-|
B-6-6-6-6----6-6-6-6----7-7-7-7-5-7-7-7-7-5-|
G-5-5-5-5----5-5-5-5----7-7-7-7-6-7-7-7-7-6-|
D-7-7-7-7-10-7-7-7-7-10-7-7-7-7-7-7-7-7-7-7-|
A-8-8-8-8-10-8-8-8-8-10-5-5-5-5-7-5-5-5-5-7-|
E-5-5-5-5--8-5-5-5-5--8---------5---------5-|

Chorus

e-------------------------------------|
B-------------------------------------|
G-7-5-7-5-7-/-12-12-12-12-12-12-12-12-|
D-7-5-7-5-7-/-12-12-12-12-12-12-12-12-|
A-5-3-5-3-5-/-10-10-10-10-10-10-10-10-|
E-------------------------------------|

e---------------------------------------------------|
B---------------------------------------------------|
G-7-/-12-12-12-12-12-12-12-12--12-12-12-12-12-12-12-|
D-7-/-12-12-12-12-12-12-12-12--12-12-12-12-12-12-12-|
A-5-/-10-10-10-10-10-10-10-10--10-10-10-10-10-10-10-|
E---------------------------------------------------|

Solo

e-6-6-6---1-1-1---3-3------|
B-6-6-6---1-1-1---3-3------|
G-7-7-7---2-2-2---4-4-10-7-|
D-8-8-8---3-3-3---5-5------|
A-8-8-8---3-3-3---5-5------|
E-6-6-6---1-1-1---3-3------|


e-6-6-6---1-1-1---3-3------|
B-6-6-6---1-1-1---3-3------|
G-7-7-7---2-2-2---4-4-10-7-|
D-8-8-8---3-3-3---5-5------|
A-8-8-8---3-3-3---5-5------|
E-6-6-6---1-1-1---3-3------|


e-6-6-6---1-1-1---3-3------|
B-6-6-6---1-1-1---3-3------|
G-7-7-7---2-2-2---4-4-10-7-|
D-8-8-8---3-3-3---5-5------|
A-8-8-8---3-3-3---5-5------|
E-6-6-6---1-1-1---3-3------|


e-6-6-6---1-1-1---3-3------|
B-6-6-6---1-1-1---3-3------|
G-7-7-7---2-2-2---4-4-10-7-|
D-8-8-8---3-3-3---5-5------|
A-8-8-8---3-3-3---5-5------|
E-6-6-6---1-1-1---3-3------|

e--7--7--7--7--7--7--7--7--7--7-|
B--8--8--8--8--8--8--8--8--8--8-|
G--7--7--7--7--7--7--7--7--7--7-|
D--9--9--9--9--9--9--9--9--9--9-|
A-10-10-10-10-10-10-10-10-10-10-|
E--7--7--7--7--7--7--7--7--7--7-|

e--7--7--7--7--7--7--7--7--7--7-|
B--8--8--8--8--8--8--8--8--8--8-|
G--7--7--7--7--7--7--7--7--7--7-|
D--9--9--9--9--9--9--9--9--9--9-|
A-10-10-10-10-10-10-10-10-10-10-|
E--7--7--7--7--7--7--7--7--7--7-|

Pre Verse

e-5-5-5-5----5-5-5-5----5-5-5-5-5-5-5-5-5-5-|
B-6-6-6-6----6-6-6-6----7-7-7-7-5-7-7-7-7-5-|
G-5-5-5-5----5-5-5-5----7-7-7-7-6-7-7-7-7-6-|
D-7-7-7-7-10-7-7-7-7-10-7-7-7-7-7-7-7-7-7-7-|
A-8-8-8-8-10-8-8-8-8-10-5-5-5-5-7-5-5-5-5-7-|
E-5-5-5-5--8-5-5-5-5--8---------5---------5-|

e-5-5-5-5----5-5-5-5----5-5-5-5-5-5-5-5-5-5-|
B-6-6-6-6----6-6-6-6----7-7-7-7-5-7-7-7-7-5-|
G-5-5-5-5----5-5-5-5----7-7-7-7-6-7-7-7-7-6-|
D-7-7-7-7-10-7-7-7-7-10-7-7-7-7-7-7-7-7-7-7-|
A-8-8-8-8-10-8-8-8-8-10-5-5-5-5-7-5-5-5-5-7-|
E-5-5-5-5--8-5-5-5-5--8---------5---------5-|

Verse 3

e-5-5-5-5----5-5-5-5----5-5-5-5-5-5-5-5-5-5-|
B-6-6-6-6----6-6-6-6----7-7-7-7-5-7-7-7-7-5-|
G-5-5-5-5----5-5-5-5----7-7-7-7-6-7-7-7-7-6-|
D-7-7-7-7-10-7-7-7-7-10-7-7-7-7-7-7-7-7-7-7-|
A-8-8-8-8-10-8-8-8-8-10-5-5-5-5-7-5-5-5-5-7-|
E-5-5-5-5--8-5-5-5-5--8---------5---------5-|

e-5-5-5-5----5-5-5-5----5-5-5-5-5-5-5-5-5-5-|
B-6-6-6-6----6-6-6-6----7-7-7-7-5-7-7-7-7-5-|
G-5-5-5-5----5-5-5-5----7-7-7-7-6-7-7-7-7-6-|
D-7-7-7-7-10-7-7-7-7-10-7-7-7-7-7-7-7-7-7-7-|
A-8-8-8-8-10-8-8-8-8-10-5-5-5-5-7-5-5-5-5-7-|
E-5-5-5-5--8-5-5-5-5--8---------5---------5-|

Chorus

e-------------------------------------|
B-------------------------------------|
G-7-5-7-5-7-/-12-12-12-12-12-12-12-12-|
D-7-5-7-5-7-/-12-12-12-12-12-12-12-12-|
A-5-3-5-3-5-/-10-10-10-10-10-10-10-10-|
E-------------------------------------|

e-----------------------------|
B-----------------------------|
G-7-/-12-12-12-12-12-12-12-12-|
D-7-/-12-12-12-12-12-12-12-12-|
A-5-/-10-10-10-10-10-10-10-10-|
E-----------------------------|

e-----------------------------|
B-----------------------------|
G-7-/-12-12-12-12-12-12-12-12-|
D-7-/-12-12-12-12-12-12-12-12-|
A-5-/-10-10-10-10-10-10-10-10-|
E-----------------------------|

e---------------------------------------------------|
B---------------------------------------------------|
G-7-/-12-12-12-12-12-12-12-12--12-12-12-12-12-12-12-|
D-7-/-12-12-12-12-12-12-12-12--12-12-12-12-12-12-12-|
A-5-/-10-10-10-10-10-10-10-10--10-10-10-10-10-10-10-|
E---------------------------------------------------|

Outro


e-5-----5-----5----5----5-----5-------------7--7--7--7--7--7--7--7-|
B-6-----5-----6----5----6-----5-------------8--8--8--8--8--8--8--8-|
G-7-----5-----7----5----7-----5-------------7--7--7--7--7--7--7--7-|
D-7-----7-----7----7----7-----7----5-5-5-5--9--9--9--9--9--9--9--9-|
A-5-----7-----5----7----5-----7----5-5-5-5-10-10-10-10-10-10-10-10-|
E-------5----------5----------5----3-3-3-3--7--7--7--7--7--7--7--7-|

We were so pretty now is this it
You and I are too young for this
No blood no lust or spit
But still there is something there to play upon
A flash of instant thereabouts youll miss it and its gone

But still its good to be in love with someone
When youíve always had to be with no one.
She said everyones a story of their own
But if we donít leave now well find ourselves with no way home

And so we strolled on all bangered and confused
At first it wasnít pretty but we soon undid that rouse so
Now we got something in many other ways
All the boys together and a knees up on the way

Still its good to be in love with someone
When youíve always had to be with no one.
She said everyones a story of their own
But if we donít leave now well find ourselves with no way home
Find ourselves with now way home

and it occured to me, I think on Lambeth rd.
there is no more reason to question life
or cry for What I'm owed
now its over so now it's done the english sun
is setting and the rude boy's on the run

still it's good to be in love with someone
when you always had to be with no one
i guess i need you to remind me every day
the lives and loves we've lost and broken on the way
heres to tomorrow and the lonely streets we'll roam
but if we don't leave now we'll find ourselves with no way home

Just to think were almost home

Im pretty sure I got this one fairly decent I had alot of help soo  any corrections PM me.

Last Of The Small Town Playboys

Carl's Parts

Intro

e-5-5-5-5-5-6-6-6-6-6-5-5-5-5-5-5-|
B-6-6-6-6-6-6-6-6-6-6-5-5-5-5-5-5-|
G-7-7-7-7-7-7-7-7-7-7-6-6-6-6-6-6-|
D-7-7-7-7-7-8-8-8-8-8-7-7-7-7-7-7-|
A-5-5-5-5-5-8-8-8-8-8-7-7-7-7-7-7-|
E-----------6-6-6-6-6-5-5-5-5-5-5-|

e-5-5-5-5-5-6-6-6-6-6-5-5-5-5-5-5-|
B-6-6-6-6-6-6-6-6-6-6-5-5-5-5-5-5-|
G-7-7-7-7-7-7-7-7-7-7-6-6-6-6-6-6-|
D-7-7-7-7-7-8-8-8-8-8-7-7-7-7-7-7-|
A-5-5-5-5-5-8-8-8-8-8-7-7-7-7-7-7-|
E-----------6-6-6-6-6-5-5-5-5-5-5-|

          3/4
e-5-5-5-5-5-6-6-6-6-6-5-5-5-5-5-5-|
B-6-6-6-6-6-6-6-6-6-6-5-5-5-5-5-5-|
G-7-7-7-7-7-7-7-7-7-7-6-6-6-6-6-6-|
D-7-7-7-7-7-8-8-8-8-8-7-7-7-7-7-7-|
A-5-5-5-5-5-8-8-8-8-8-7-7-7-7-7-7-|
E-----------6-6-6-6-6-5-5-5-5-5-5-|

e-5-5-5-5-5-6-6-6-6-6-5-5-5-5-5-5-|
B-6-6-6-6-6-6-6-6-6-6-5-5-5-5-5-5-|
G-7-7-7-7-7-7-7-7-7-7-6-6-6-6-6-6-|
D-7-7-7-7-7-8-8-8-8-8-7-7-7-7-7-7-|
A-5-5-5-5-5-8-8-8-8-8-7-7-7-7-7-7-|
E-----------6-6-6-6-6-5-5-5-5-5-5-|

Verse 1

e-5-5-5-5-5-6-6-6-6-6-5-5-5-5-5-5-|
B-6-6-6-6-6-6-6-6-6-6-5-5-5-5-5-5-|
G-7-7-7-7-7-7-7-7-7-7-6-6-6-6-6-6-|
D-7-7-7-7-7-8-8-8-8-8-7-7-7-7-7-7-|
A-5-5-5-5-5-8-8-8-8-8-7-7-7-7-7-7-|
E-----------6-6-6-6-6-5-5-5-5-5-5-|

e-5-5-5-5-5-6-6-6-6-6-5-5-5-5-5-5-|
B-6-6-6-6-6-6-6-6-6-6-5-5-5-5-5-5-|
G-7-7-7-7-7-7-7-7-7-7-6-6-6-6-6-6-|
D-7-7-7-7-7-8-8-8-8-8-7-7-7-7-7-7-|
A-5-5-5-5-5-8-8-8-8-8-7-7-7-7-7-7-|
E-----------6-6-6-6-6-5-5-5-5-5-5-|

e-5-5-5-5-5-6-6-6-6-6-5-5-5-5-5-5-|
B-6-6-6-6-6-6-6-6-6-6-5-5-5-5-5-5-|
G-7-7-7-7-7-7-7-7-7-7-6-6-6-6-6-6-|
D-7-7-7-7-7-8-8-8-8-8-7-7-7-7-7-7-|
A-5-5-5-5-5-8-8-8-8-8-7-7-7-7-7-7-|
E-----------6-6-6-6-6-5-5-5-5-5-5-|

e-5-5-5-5-5-6-6-6-6-6-5-5-5-5-5-5-|
B-6-6-6-6-6-6-6-6-6-6-5-5-5-5-5-5-|
G-7-7-7-7-7-7-7-7-7-7-6-6-6-6-6-6-|
D-7-7-7-7-7-8-8-8-8-8-7-7-7-7-7-7-|
A-5-5-5-5-5-8-8-8-8-8-7-7-7-7-7-7-|
E-----------6-6-6-6-6-5-5-5-5-5-5-|

e-5-5-5-5-5-6-6-6-6-6-5-5-5-5-5-5-|
B-6-6-6-6-6-6-6-6-6-6-5-5-5-5-5-5-|
G-7-7-7-7-7-7-7-7-7-7-6-6-6-6-6-6-|
D-7-7-7-7-7-8-8-8-8-8-7-7-7-7-7-7-|
A-5-5-5-5-5-8-8-8-8-8-7-7-7-7-7-7-|
E-----------6-6-6-6-6-5-5-5-5-5-5-|

e-5-5-5-5-5-6-6-6-6-6-5-5-5-5-5-5-|
B-6-6-6-6-6-6-6-6-6-6-5-5-5-5-5-5-|
G-7-7-7-7-7-7-7-7-7-7-6-6-6-6-6-6-|
D-7-7-7-7-7-8-8-8-8-8-7-7-7-7-7-7-|
A-5-5-5-5-5-8-8-8-8-8-7-7-7-7-7-7-|
E-----------6-6-6-6-6-5-5-5-5-5-5-|

e-5-5-5-5-5-6-6-6-6-6-5-5-5-5-5-5-|
B-6-6-6-6-6-6-6-6-6-6-5-5-5-5-5-5-|
G-7-7-7-7-7-7-7-7-7-7-6-6-6-6-6-6-|
D-7-7-7-7-7-8-8-8-8-8-7-7-7-7-7-7-|
A-5-5-5-5-5-8-8-8-8-8-7-7-7-7-7-7-|
E-----------6-6-6-6-6-5-5-5-5-5-5-|

e-5-5-5-5-5-6-6-6-6-6-5-5-5-5-5-5-|
B-6-6-6-6-6-6-6-6-6-6-5-5-5-5-5-5-|
G-7-7-7-7-7-7-7-7-7-7-6-6-6-6-6-6-|
D-7-7-7-7-7-8-8-8-8-8-7-7-7-7-7-7-|
A-5-5-5-5-5-8-8-8-8-8-7-7-7-7-7-7-|
E-----------6-6-6-6-6-5-5-5-5-5-5-|

Break

e-5-5-5-5-5-5-5-5-5-5-5-5-|
B-6-6-6-6-6-6-5-5-5-5-5-5-|
G-7-7-7-7-7-7-6-6-6-6-6-6-|
D-7-7-7-7-7-7-7-7-7-7-7-7-|
A-5-5-5-5-5-5-7-7-7-7-7-7-|
E-------------5-5-5-5-5-5-|


e-5-5-5-5-5-5-5-5-5-5-5-5-|
B-6-6-6-6-6-6-5-5-5-5-5-5-|
G-7-7-7-7-7-7-6-6-6-6-6-6-|
D-7-7-7-7-7-7-7-7-7-7-7-7-|
A-5-5-5-5-5-5-7-7-7-7-7-7-|
E-------------5-5-5-5-5-5-|


e-5-5-5-5-5-5-5-5-5-5-5-5-|
B-6-6-6-6-6-6-5-5-5-5-5-5-|
G-7-7-7-7-7-7-6-6-6-6-6-6-|
D-7-7-7-7-7-7-7-7-7-7-7-7-|
A-5-5-5-5-5-5-7-7-7-7-7-7-|
E-------------5-5-5-5-5-5-|

e-5-5-5-5-5-5-3-3-3-3-3-3-3-3-3-3-3-3-3-3-3-|
B-6-6-6-5-5-5-5-5-5-5-5-5-5-5-5-5-5-5-5-5-5-|
G-7-7-7-6-6-6-5-5-5-5-5-5-5-5-5-5-5-5-5-5-5-|
D-7-7-7-7-7-7-5-5-5-5-5-5-5-5-5-5-5-5-5-5-5-|
A-5-5-5-7-7-7-3-3-3-3-3-3-3-3-3-3-3-3-3-3-3-|
E-------5-5-5-------------------------------|

Chorus

e-5-5-5-5-5-5-12-12-12-12-12-12-|
B-7-7-7-7-7-7-14-14-14-14-14-14-|
G-7-7-7-7-7-7-14-14-14-14-14-14-|
D-7-7-7-7-7-7-14-14-14-14-14-14-|
A-5-5-5-5-5-5-12-12-12-12-12-12-|
E-------------------------------|

e-5-5-5-5-5-5-12-12-12-12-12-12-|
B-7-7-7-7-7-7-14-14-14-14-14-14-|
G-7-7-7-7-7-7-14-14-14-14-14-14-|
D-7-7-7-7-7-7-14-14-14-14-14-14-|
A-5-5-5-5-5-5-12-12-12-12-12-12-|
E-------------------------------|

e-5-5-5-5-5-5-12-12-12-12-12-12-|
B-7-7-7-7-7-7-14-14-14-14-14-14-|
G-7-7-7-7-7-7-14-14-14-14-14-14-|
D-7-7-7-7-7-7-14-14-14-14-14-14-|
A-5-5-5-5-5-5-12-12-12-12-12-12-|
E-------------------------------|

e-5-5-5-5-5-5-12-12-12-12-12-12-|
B-7-7-7-7-7-7-14-14-14-14-14-14-|
G-7-7-7-7-7-7-14-14-14-14-14-14-|
D-7-7-7-7-7-7-14-14-14-14-14-14-|
A-5-5-5-5-5-5-12-12-12-12-12-12-|
E-------------------------------|

e-14-14-14-14-14-14-14-14-|
B-16-16-16-16-16-16-16-16-|
G-16-16-16-16-16-16-16-16-|
D-16-16-16-16-16-16-16-16-|
A-14-14-14-14-14-14-14-14-|
E-------------------------|

Pre Verse

e-5-5-5-5-5-6-6-6-6-6-5-5-5-5-5-5-|
B-6-6-6-6-6-6-6-6-6-6-5-5-5-5-5-5-|
G-7-7-7-7-7-7-7-7-7-7-6-6-6-6-6-6-|
D-7-7-7-7-7-8-8-8-8-8-7-7-7-7-7-7-|
A-5-5-5-5-5-8-8-8-8-8-7-7-7-7-7-7-|
E-----------6-6-6-6-6-5-5-5-5-5-5-|

e-5-5-5-5-5-6-6-6-6-6-5-5-5-5-5-5-|
B-6-6-6-6-6-6-6-6-6-6-5-5-5-5-5-5-|
G-7-7-7-7-7-7-7-7-7-7-6-6-6-6-6-6-|
D-7-7-7-7-7-8-8-8-8-8-7-7-7-7-7-7-|
A-5-5-5-5-5-8-8-8-8-8-7-7-7-7-7-7-|
E-----------6-6-6-6-6-5-5-5-5-5-5-|

Verse 2

e-5-5-5-5-5-6-6-6-6-6-5-5-5-5-5-5-|
B-6-6-6-6-6-6-6-6-6-6-5-5-5-5-5-5-|
G-7-7-7-7-7-7-7-7-7-7-6-6-6-6-6-6-|
D-7-7-7-7-7-8-8-8-8-8-7-7-7-7-7-7-|
A-5-5-5-5-5-8-8-8-8-8-7-7-7-7-7-7-|
E-----------6-6-6-6-6-5-5-5-5-5-5-|

e-5-5-5-5-5-6-6-6-6-6-5-5-5-5-5-5-|
B-6-6-6-6-6-6-6-6-6-6-5-5-5-5-5-5-|
G-7-7-7-7-7-7-7-7-7-7-6-6-6-6-6-6-|
D-7-7-7-7-7-8-8-8-8-8-7-7-7-7-7-7-|
A-5-5-5-5-5-8-8-8-8-8-7-7-7-7-7-7-|
E-----------6-6-6-6-6-5-5-5-5-5-5-|

e-5-5-5-5-5-6-6-6-6-6-5-5-5-5-5-5-|
B-6-6-6-6-6-6-6-6-6-6-5-5-5-5-5-5-|
G-7-7-7-7-7-7-7-7-7-7-6-6-6-6-6-6-|
D-7-7-7-7-7-8-8-8-8-8-7-7-7-7-7-7-|
A-5-5-5-5-5-8-8-8-8-8-7-7-7-7-7-7-|
E-----------6-6-6-6-6-5-5-5-5-5-5-|

e-5-5-5-5-5-6-6-6-6-6-5-5-5-5-5-5-|
B-6-6-6-6-6-6-6-6-6-6-5-5-5-5-5-5-|
G-7-7-7-7-7-7-7-7-7-7-6-6-6-6-6-6-|
D-7-7-7-7-7-8-8-8-8-8-7-7-7-7-7-7-|
A-5-5-5-5-5-8-8-8-8-8-7-7-7-7-7-7-|
E-----------6-6-6-6-6-5-5-5-5-5-5-|

e-5-5-5-5-5-6-6-6-6-6-5-5-5-5-5-5-|
B-6-6-6-6-6-6-6-6-6-6-5-5-5-5-5-5-|
G-7-7-7-7-7-7-7-7-7-7-6-6-6-6-6-6-|
D-7-7-7-7-7-8-8-8-8-8-7-7-7-7-7-7-|
A-5-5-5-5-5-8-8-8-8-8-7-7-7-7-7-7-|
E-----------6-6-6-6-6-5-5-5-5-5-5-|

e-5-5-5-5-5-6-6-6-6-6-5-5-5-5-5-5-|
B-6-6-6-6-6-6-6-6-6-6-5-5-5-5-5-5-|
G-7-7-7-7-7-7-7-7-7-7-6-6-6-6-6-6-|
D-7-7-7-7-7-8-8-8-8-8-7-7-7-7-7-7-|
A-5-5-5-5-5-8-8-8-8-8-7-7-7-7-7-7-|
E-----------6-6-6-6-6-5-5-5-5-5-5-|

e-5-5-5-5-5-6-6-6-6-6-5-5-5-5-5-5-|
B-6-6-6-6-6-6-6-6-6-6-5-5-5-5-5-5-|
G-7-7-7-7-7-7-7-7-7-7-6-6-6-6-6-6-|
D-7-7-7-7-7-8-8-8-8-8-7-7-7-7-7-7-|
A-5-5-5-5-5-8-8-8-8-8-7-7-7-7-7-7-|
E-----------6-6-6-6-6-5-5-5-5-5-5-|

e-5-5-5-5-5-6-6-6-6-6-5-5-5-5-5-5-|
B-6-6-6-6-6-6-6-6-6-6-5-5-5-5-5-5-|
G-7-7-7-7-7-7-7-7-7-7-6-6-6-6-6-6-|
D-7-7-7-7-7-8-8-8-8-8-7-7-7-7-7-7-|
A-5-5-5-5-5-8-8-8-8-8-7-7-7-7-7-7-|
E-----------6-6-6-6-6-5-5-5-5-5-5-|

Break

e-5-5-5-5-5-5-5-5-5-5-5-5-|
B-6-6-6-6-6-6-5-5-5-5-5-5-|
G-7-7-7-7-7-7-6-6-6-6-6-6-|
D-7-7-7-7-7-7-7-7-7-7-7-7-|
A-5-5-5-5-5-5-7-7-7-7-7-7-|
E-------------5-5-5-5-5-5-|


e-5-5-5-5-5-5-5-5-5-5-5-5-|
B-6-6-6-6-6-6-5-5-5-5-5-5-|
G-7-7-7-7-7-7-6-6-6-6-6-6-|
D-7-7-7-7-7-7-7-7-7-7-7-7-|
A-5-5-5-5-5-5-7-7-7-7-7-7-|
E-------------5-5-5-5-5-5-|


e-5-5-5-5-5-5-5-5-5-5-5-5-|
B-6-6-6-6-6-6-5-5-5-5-5-5-|
G-7-7-7-7-7-7-6-6-6-6-6-6-|
D-7-7-7-7-7-7-7-7-7-7-7-7-|
A-5-5-5-5-5-5-7-7-7-7-7-7-|
E-------------5-5-5-5-5-5-|

e-5-5-5-5-5-5-3-3-3-3-3-3-3-3-3-3-3-3-3-3-3-|
B-6-6-6-5-5-5-5-5-5-5-5-5-5-5-5-5-5-5-5-5-5-|
G-7-7-7-6-6-6-5-5-5-5-5-5-5-5-5-5-5-5-5-5-5-|
D-7-7-7-7-7-7-5-5-5-5-5-5-5-5-5-5-5-5-5-5-5-|
A-5-5-5-7-7-7-3-3-3-3-3-3-3-3-3-3-3-3-3-3-3-|
E-------5-5-5-------------------------------|

Chorus

e-5-5-5-5-5-5-12-12-12-12-12-12-|
B-7-7-7-7-7-7-14-14-14-14-14-14-|
G-7-7-7-7-7-7-14-14-14-14-14-14-|
D-7-7-7-7-7-7-14-14-14-14-14-14-|
A-5-5-5-5-5-5-12-12-12-12-12-12-|
E-------------------------------|

e-5-5-5-5-5-5-12-12-12-12-12-12-|
B-7-7-7-7-7-7-14-14-14-14-14-14-|
G-7-7-7-7-7-7-14-14-14-14-14-14-|
D-7-7-7-7-7-7-14-14-14-14-14-14-|
A-5-5-5-5-5-5-12-12-12-12-12-12-|
E-------------------------------|

e-5-5-5-5-5-5-12-12-12-12-12-12-|
B-7-7-7-7-7-7-14-14-14-14-14-14-|
G-7-7-7-7-7-7-14-14-14-14-14-14-|
D-7-7-7-7-7-7-14-14-14-14-14-14-|
A-5-5-5-5-5-5-12-12-12-12-12-12-|
E-------------------------------|

e-5-5-5-5-5-5-12-12-12-12-12-12-|
B-7-7-7-7-7-7-14-14-14-14-14-14-|
G-7-7-7-7-7-7-14-14-14-14-14-14-|
D-7-7-7-7-7-7-14-14-14-14-14-14-|
A-5-5-5-5-5-5-12-12-12-12-12-12-|
E-------------------------------|

e-14-14-14-14-14-14-14-14-|
B-16-16-16-16-16-16-16-16-|
G-16-16-16-16-16-16-16-16-|
D-16-16-16-16-16-16-16-16-|
A-14-14-14-14-14-14-14-14-|
E-------------------------|

Solo

e---------------|
B---------------|
G---------------|
D---------------|
A-8-8-8-8-8-8-7-|
E---------------|

e---------------|
B---------------|
G---------------|
D---------------|
A-8-8-8-8-8-8-7-|
E---------------|

e---------------|
B---------------|
G---------------|
D---------------|
A-8-8-8-8-8-8-7-|
E---------------|

e---------------|
B---------------|
G---------------|
D---------------|
A-8-8-8-8-8-8-7-|
E---------------|


Chorus Fast

e-5-5-5-5-5-5-12-12-12-12-12-12-|
B-7-7-7-7-7-7-14-14-14-14-14-14-|
G-7-7-7-7-7-7-14-14-14-14-14-14-|
D-7-7-7-7-7-7-14-14-14-14-14-14-|
A-5-5-5-5-5-5-12-12-12-12-12-12-|
E-------------------------------|

e-5-5-5-5-5-5-12-12-12-12-12-12-|
B-7-7-7-7-7-7-14-14-14-14-14-14-|
G-7-7-7-7-7-7-14-14-14-14-14-14-|
D-7-7-7-7-7-7-14-14-14-14-14-14-|
A-5-5-5-5-5-5-12-12-12-12-12-12-|
E-------------------------------|

e-5-5-5-5-5-5-12-12-12-12-12-12-|
B-7-7-7-7-7-7-14-14-14-14-14-14-|
G-7-7-7-7-7-7-14-14-14-14-14-14-|
D-7-7-7-7-7-7-14-14-14-14-14-14-|
A-5-5-5-5-5-5-12-12-12-12-12-12-|
E-------------------------------|

e-5-5-5-5-5-5-12-12-12-12-12-12-|
B-7-7-7-7-7-7-14-14-14-14-14-14-|
G-7-7-7-7-7-7-14-14-14-14-14-14-|
D-7-7-7-7-7-7-14-14-14-14-14-14-|
A-5-5-5-5-5-5-12-12-12-12-12-12-|
E-------------------------------|

e-14-14-14-14-14-14-14-14-|
B-16-16-16-16-16-16-16-16-|
G-16-16-16-16-16-16-16-16-|
D-16-16-16-16-16-16-16-16-|
A-14-14-14-14-14-14-14-14-|
E-------------------------|

Chorus Faster

e-5-5-5-5-5-5-12-12-12-12-12-12-|
B-7-7-7-7-7-7-14-14-14-14-14-14-|
G-7-7-7-7-7-7-14-14-14-14-14-14-|
D-7-7-7-7-7-7-14-14-14-14-14-14-|
A-5-5-5-5-5-5-12-12-12-12-12-12-|
E-------------------------------|

e-5-5-5-5-5-5-12-12-12-12-12-12-|
B-7-7-7-7-7-7-14-14-14-14-14-14-|
G-7-7-7-7-7-7-14-14-14-14-14-14-|
D-7-7-7-7-7-7-14-14-14-14-14-14-|
A-5-5-5-5-5-5-12-12-12-12-12-12-|
E-------------------------------|

e-5-5-5-5-5-5-12-12-12-12-12-12-|
B-7-7-7-7-7-7-14-14-14-14-14-14-|
G-7-7-7-7-7-7-14-14-14-14-14-14-|
D-7-7-7-7-7-7-14-14-14-14-14-14-|
A-5-5-5-5-5-5-12-12-12-12-12-12-|
E-------------------------------|

e-5-5-5-5-5-5-12-12-12-12-12-12-|
B-7-7-7-7-7-7-14-14-14-14-14-14-|
G-7-7-7-7-7-7-14-14-14-14-14-14-|
D-7-7-7-7-7-7-14-14-14-14-14-14-|
A-5-5-5-5-5-5-12-12-12-12-12-12-|
E-------------------------------|

e-14-14-14-14-14-14-14-14-|
B-16-16-16-16-16-16-16-16-|
G-16-16-16-16-16-16-16-16-|
D-16-16-16-16-16-16-16-16-|
A-14-14-14-14-14-14-14-14-|
E-------------------------|


Anthony's Parts

Intro

3/4
e-5-5-5-5-|
B-6-6-6-6-|
G-7-7-7-7-|
D-7-7-7-7-|
A-5-5-5-5-|
E---------|

Verse 1

Break

Chorus

Intro

Verse 2

Break

Chorus

Solo

e----------------------------------------|
B----------------------------------------|
G-2-2-4-4-5-5-7-7-9----9-9-7-7-5-5-4-4-2-|
D----------------------------------------|
A----------------------------------------|
E----------------------------------------|

e----------------------------------------|
B----------------------------------------|
G-2-2-4-4-5-5-7-7-9----9-9-7-7-5-5-4-4-2-|
D----------------------------------------|
A----------------------------------------|
E----------------------------------------|

e----------------------------------------|
B----------------------------------------|
G-2-2-4-4-5-5-7-7-9----9-9-7-7-5-5-4-4-2-|
D----------------------------------------|
A----------------------------------------|
E----------------------------------------|

e----------------------------------------|
B----------------------------------------|
G-2-2-4-4-5-5-7-7-9----9-9-7-7-5-5-4-4-2-|
D----------------------------------------|
A----------------------------------------|
E----------------------------------------|

Chorus Fast

Chorus Faster

To think that the last of the small town playboys was a little bit like me

Hold on

Well what could that mean?
Well Im still looking around for leads
Cos when it comes to playboys
Small towns are bursting at the seams
Englandís getting fat
But this suit is wearing thin
So deal me another hand
Before the games begin
Well what do you do if the world owes you something?
What else is there to do
When the world owes you something new?

I want you just to forget myself
I need you just to forget myself
I want you just to forget myself

And so the last of the small town playboys
Is a little bit like me

Hold on, Aye

Now what could that mean?
No hope of hope and glory
Spilling down the Camden Road
Im in it for the story
That you spit at me in code
Well, my hearts in a headlock and my soul goes on unsung
Unsung for the lonely
Well what do you do when your world owes you something?
Oh what is there to do
When the world owes you something new?

I want you just to forget myself
I need you just to forget myself
Iíve got you just to forget myself

I need you
I want you
Ive got you just to forget myself
I need you
I want you
Iíve got you just to forget myself

Hold On

I need some serious help on this one not sure at all what Anthony plays its very noodly 
he said himself soo any corrections PM me.


B.U.R.M.A

Carl's Parts

Intro
    C       F      C       F        Fm     Em
e--8--8----8--8----8--8----8--8----8--8----7-7-|
B--8--8---10-10----8--8---10-10----9--9----8-8-|
G--9--9---10-10----9--9---10-10---10-10----9-9-|
D-10-10---10-10---10-10---10-10---10-10----9-9-|
A-10-10----8--8---10-10----8--8----8--8----7-7-|
E--8--8------------8--8------------------------|

goof around with it
  D
e-5-5-5-5-5-5-5-|
B-7-7-7-7-7-7-7-|
G-7-7-7-7-7-7-7-|
D-7-7-7-7-7-7-7-|
A-5-5-5-5-5-5-5-|
E---------------|

Verse 1 Acoustic

when it comes to the verse you either play Chords barred or open your choice go for comfort
  C              Am            Dm              G
e-0-0-0-0-0-0-0-0-0-0-0-0-0-0-1-1-1-1-1-1-1-1-3-3-3-3-3-3-3-|
B-1-1-1-1-1-1-1-1-1-1-1-1-1-1-3-3-3-3-3-3-3-3-3-3-3-3-3-3-3-|
G-0-0-0-0-0-0-0-2-2-2-2-2-2-2-2-2-2-2-2-2-2-2-0-0-0-0-0-0-0-|
D-2-2-2-2-2-2-2-2-2-2-2-2-2-2-0-0-0-0-0-0-0-0-0-0-0-0-0-0-0-|
A-3-3-3-3-3-3-3-0-0-0-0-0-0-0-----------------2-2-2-2-2-2-2-|
E---------------------------------------------3-3-3-3-3-3-3-|

  C              Am            Dm              G
e-0-0-0-0-0-0-0-0-0-0-0-0-0-0-1-1-1-1-1-1-1-1-3-3-3-3-3-3-3-|
B-1-1-1-1-1-1-1-1-1-1-1-1-1-1-3-3-3-3-3-3-3-3-3-3-3-3-3-3-3-|
G-0-0-0-0-0-0-0-2-2-2-2-2-2-2-2-2-2-2-2-2-2-2-0-0-0-0-0-0-0-|
D-2-2-2-2-2-2-2-2-2-2-2-2-2-2-0-0-0-0-0-0-0-0-0-0-0-0-0-0-0-|
A-3-3-3-3-3-3-3-0-0-0-0-0-0-0-----------------2-2-2-2-2-2-2-|
E---------------------------------------------3-3-3-3-3-3-3-|

  C              Am            Dm              G
e-0-0-0-0-0-0-0-0-0-0-0-0-0-0-1-1-1-1-1-1-1-1-3-3-3-3-3-3-3-|
B-1-1-1-1-1-1-1-1-1-1-1-1-1-1-3-3-3-3-3-3-3-3-3-3-3-3-3-3-3-|
G-0-0-0-0-0-0-0-2-2-2-2-2-2-2-2-2-2-2-2-2-2-2-0-0-0-0-0-0-0-|
D-2-2-2-2-2-2-2-2-2-2-2-2-2-2-0-0-0-0-0-0-0-0-0-0-0-0-0-0-0-|
A-3-3-3-3-3-3-3-0-0-0-0-0-0-0-----------------2-2-2-2-2-2-2-|
E---------------------------------------------3-3-3-3-3-3-3-|

  C              Am            Dm              G
e-0-0-0-0-0-0-0-0-0-0-0-0-0-0-1-1-1-1-1-1-1-1-3-3-3-3-3-3-3-|
B-1-1-1-1-1-1-1-1-1-1-1-1-1-1-3-3-3-3-3-3-3-3-3-3-3-3-3-3-3-|
G-0-0-0-0-0-0-0-2-2-2-2-2-2-2-2-2-2-2-2-2-2-2-0-0-0-0-0-0-0-|
D-2-2-2-2-2-2-2-2-2-2-2-2-2-2-0-0-0-0-0-0-0-0-0-0-0-0-0-0-0-|
A-3-3-3-3-3-3-3-0-0-0-0-0-0-0-----------------2-2-2-2-2-2-2-|
E---------------------------------------------3-3-3-3-3-3-3-|

Chorus Electric
    F       C
e--8--8---8--8--8--8--8--8--8-|
B-10-10---8--8--8--8--8--8--8-|
G-10-10---9--9--9--9--9--9--9-|
D-10-10--10-10-10-10-10-10-10-|
A--8--8--10-10-10-10-10-10-10-|
E---------8--8--8--8--8--8--8-|

   F       C
e--8--8---8--8--8--8--8--8--8-|
B-10-10---8--8--8--8--8--8--8-|
G-10-10---9--9--9--9--9--9--9-|
D-10-10--10-10-10-10-10-10-10-|
A--8--8--10-10-10-10-10-10-10-|
E---------8--8--8--8--8--8--8-|
   F      G#     G
e--8--8--11-11-3-3-3-3-3-3-3-3-3-3-3-3-3-3-3-|
B-10-10--13-13-3-3-3-3-3-3-3-3-3-3-3-3-3-3-3-|
G-10-10--13-13-4-4-4-4-4-4-4-4-4-4-4-4-4-4-4-|
D-10-10--13-13-5-5-5-5-5-5-5-5-5-5-5-5-5-5-5-|
A--8--8--11-11-5-5-5-5-5-5-5-5-5-5-5-5-5-5-5-|
E--------------3-3-3-3-3-3-3-3-3-3-3-3-3-3-3-|

Verse 2 Acoustic

when it comes to the verse you either play Chords barred or open your choice go for comfort
  C              Am            Dm              G
e-0-0-0-0-0-0-0-0-0-0-0-0-0-0-1-1-1-1-1-1-1-1-3-3-3-3-3-3-3-|
B-1-1-1-1-1-1-1-1-1-1-1-1-1-1-3-3-3-3-3-3-3-3-3-3-3-3-3-3-3-|
G-0-0-0-0-0-0-0-2-2-2-2-2-2-2-2-2-2-2-2-2-2-2-0-0-0-0-0-0-0-|
D-2-2-2-2-2-2-2-2-2-2-2-2-2-2-0-0-0-0-0-0-0-0-0-0-0-0-0-0-0-|
A-3-3-3-3-3-3-3-0-0-0-0-0-0-0-----------------2-2-2-2-2-2-2-|
E---------------------------------------------3-3-3-3-3-3-3-|

  C              Am            Dm              G
e-0-0-0-0-0-0-0-0-0-0-0-0-0-0-1-1-1-1-1-1-1-1-3-3-3-3-3-3-3-|
B-1-1-1-1-1-1-1-1-1-1-1-1-1-1-3-3-3-3-3-3-3-3-3-3-3-3-3-3-3-|
G-0-0-0-0-0-0-0-2-2-2-2-2-2-2-2-2-2-2-2-2-2-2-0-0-0-0-0-0-0-|
D-2-2-2-2-2-2-2-2-2-2-2-2-2-2-0-0-0-0-0-0-0-0-0-0-0-0-0-0-0-|
A-3-3-3-3-3-3-3-0-0-0-0-0-0-0-----------------2-2-2-2-2-2-2-|
E---------------------------------------------3-3-3-3-3-3-3-|

Electric for last two bars with Acoustic
  C              Am            Dm              G
e-0-0-0-0-0-0-0-0-0-0-0-0-0-0-1-1-1-1-1-1-1-1-3-3-3-3-3-3-3-|
B-1-1-1-1-1-1-1-1-1-1-1-1-1-1-3-3-3-3-3-3-3-3-3-3-3-3-3-3-3-|
G-0-0-0-0-0-0-0-2-2-2-2-2-2-2-2-2-2-2-2-2-2-2-0-0-0-0-0-0-0-|
D-2-2-2-2-2-2-2-2-2-2-2-2-2-2-0-0-0-0-0-0-0-0-0-0-0-0-0-0-0-|
A-3-3-3-3-3-3-3-0-0-0-0-0-0-0-----------------2-2-2-2-2-2-2-|
E---------------------------------------------3-3-3-3-3-3-3-|

  C              Am            Dm              G
e-0-0-0-0-0-0-0-0-0-0-0-0-0-0-1-1-1-1-1-1-1-1-3-3-3-3-3-3-3-|
B-1-1-1-1-1-1-1-1-1-1-1-1-1-1-3-3-3-3-3-3-3-3-3-3-3-3-3-3-3-|
G-0-0-0-0-0-0-0-2-2-2-2-2-2-2-2-2-2-2-2-2-2-2-0-0-0-0-0-0-0-|
D-2-2-2-2-2-2-2-2-2-2-2-2-2-2-0-0-0-0-0-0-0-0-0-0-0-0-0-0-0-|
A-3-3-3-3-3-3-3-0-0-0-0-0-0-0-----------------2-2-2-2-2-2-2-|
E---------------------------------------------3-3-3-3-3-3-3-|

Chorus Electric
    F       C
e--8--8---8--8--8--8--8--8--8-|
B-10-10---8--8--8--8--8--8--8-|
G-10-10---9--9--9--9--9--9--9-|
D-10-10--10-10-10-10-10-10-10-|
A--8--8--10-10-10-10-10-10-10-|
E---------8--8--8--8--8--8--8-|

   F       C
e--8--8---8--8--8--8--8--8--8-|
B-10-10---8--8--8--8--8--8--8-|
G-10-10---9--9--9--9--9--9--9-|
D-10-10--10-10-10-10-10-10-10-|
A--8--8--10-10-10-10-10-10-10-|
E---------8--8--8--8--8--8--8-|
   F      G#     G
e--8--8--11-11-3-3-3-3-3-3-3-3-3-3-3-3-3-3-3-|
B-10-10--13-13-3-3-3-3-3-3-3-3-3-3-3-3-3-3-3-|
G-10-10--13-13-4-4-4-4-4-4-4-4-4-4-4-4-4-4-4-|
D-10-10--13-13-5-5-5-5-5-5-5-5-5-5-5-5-5-5-5-|
A--8--8--11-11-5-5-5-5-5-5-5-5-5-5-5-5-5-5-5-|
E--------------3-3-3-3-3-3-3-3-3-3-3-3-3-3-3-|

Break

e-8-6---------------8-6---------------8-6---------------|
B-----9-6-------8-6-----9-6-------8-6-----9-6-------8-6-|
G---------8-6-8-------------8-6-8-------------8-6-8-----|
D-------------------------------------------------------|
A-------------------------------------------------------|
E-------------------------------------------------------|

e--------------------------------------|
B-8b-8-8-8-8-8-8-8-8-8-8-8-8-8-8-8-8-8-|
G--------------------------------------|
D--------------------------------------|
A--------------------------------------|
E--------------------------------------|

Verse 3

when it comes to the verse you either play Chords barred or open your choice go for comfort
  C              Am            Dm              G
e-0-0-0-0-0-0-0-0-0-0-0-0-0-0-1-1-1-1-1-1-1-1-3-3-3-3-3-3-3-|
B-1-1-1-1-1-1-1-1-1-1-1-1-1-1-3-3-3-3-3-3-3-3-3-3-3-3-3-3-3-|
G-0-0-0-0-0-0-0-2-2-2-2-2-2-2-2-2-2-2-2-2-2-2-0-0-0-0-0-0-0-|
D-2-2-2-2-2-2-2-2-2-2-2-2-2-2-0-0-0-0-0-0-0-0-0-0-0-0-0-0-0-|
A-3-3-3-3-3-3-3-0-0-0-0-0-0-0-----------------2-2-2-2-2-2-2-|
E---------------------------------------------3-3-3-3-3-3-3-|

  C              Am            Dm              G
e-0-0-0-0-0-0-0-0-0-0-0-0-0-0-1-1-1-1-1-1-1-1-3-3-3-3-3-3-3-|
B-1-1-1-1-1-1-1-1-1-1-1-1-1-1-3-3-3-3-3-3-3-3-3-3-3-3-3-3-3-|
G-0-0-0-0-0-0-0-2-2-2-2-2-2-2-2-2-2-2-2-2-2-2-0-0-0-0-0-0-0-|
D-2-2-2-2-2-2-2-2-2-2-2-2-2-2-0-0-0-0-0-0-0-0-0-0-0-0-0-0-0-|
A-3-3-3-3-3-3-3-0-0-0-0-0-0-0-----------------2-2-2-2-2-2-2-|
E---------------------------------------------3-3-3-3-3-3-3-|

Electric for last two bars with Acoustic
  C              Am            Dm              G
e-0-0-0-0-0-0-0-0-0-0-0-0-0-0-1-1-1-1-1-1-1-1-3-3-3-3-3-3-3-|
B-1-1-1-1-1-1-1-1-1-1-1-1-1-1-3-3-3-3-3-3-3-3-3-3-3-3-3-3-3-|
G-0-0-0-0-0-0-0-2-2-2-2-2-2-2-2-2-2-2-2-2-2-2-0-0-0-0-0-0-0-|
D-2-2-2-2-2-2-2-2-2-2-2-2-2-2-0-0-0-0-0-0-0-0-0-0-0-0-0-0-0-|
A-3-3-3-3-3-3-3-0-0-0-0-0-0-0-----------------2-2-2-2-2-2-2-|
E---------------------------------------------3-3-3-3-3-3-3-|

  C              Am            Dm              G
e-0-0-0-0-0-0-0-0-0-0-0-0-0-0-1-1-1-1-1-1-1-1-3-3-3-3-3-3-3-|
B-1-1-1-1-1-1-1-1-1-1-1-1-1-1-3-3-3-3-3-3-3-3-3-3-3-3-3-3-3-|
G-0-0-0-0-0-0-0-2-2-2-2-2-2-2-2-2-2-2-2-2-2-2-0-0-0-0-0-0-0-|
D-2-2-2-2-2-2-2-2-2-2-2-2-2-2-0-0-0-0-0-0-0-0-0-0-0-0-0-0-0-|
A-3-3-3-3-3-3-3-0-0-0-0-0-0-0-----------------2-2-2-2-2-2-2-|
E---------------------------------------------3-3-3-3-3-3-3-|

Outro

  C              Am            Dm              G
e-0-0-0-0-0-0-0-0-0-0-0-0-0-0-1-1-1-1-1-1-1-1-3-3-3-3-3-3-3-|
B-1-1-1-1-1-1-1-1-1-1-1-1-1-1-3-3-3-3-3-3-3-3-3-3-3-3-3-3-3-|
G-0-0-0-0-0-0-0-2-2-2-2-2-2-2-2-2-2-2-2-2-2-2-0-0-0-0-0-0-0-|
D-2-2-2-2-2-2-2-2-2-2-2-2-2-2-0-0-0-0-0-0-0-0-0-0-0-0-0-0-0-|
A-3-3-3-3-3-3-3-0-0-0-0-0-0-0-----------------2-2-2-2-2-2-2-|
E---------------------------------------------3-3-3-3-3-3-3-|

  C              Am            Dm              G
e-0-0-0-0-0-0-0-0-0-0-0-0-0-0-1-1-1-1-1-1-1-1-3-3-3-3-3-3-3-|
B-1-1-1-1-1-1-1-1-1-1-1-1-1-1-3-3-3-3-3-3-3-3-3-3-3-3-3-3-3-|
G-0-0-0-0-0-0-0-2-2-2-2-2-2-2-2-2-2-2-2-2-2-2-0-0-0-0-0-0-0-|
D-2-2-2-2-2-2-2-2-2-2-2-2-2-2-0-0-0-0-0-0-0-0-0-0-0-0-0-0-0-|
A-3-3-3-3-3-3-3-0-0-0-0-0-0-0-----------------2-2-2-2-2-2-2-|
E---------------------------------------------3-3-3-3-3-3-3-|

  C              Am            Dm              G
e-0-0-0-0-0-0-0-0-0-0-0-0-0-0-1-1-1-1-1-1-1-1-3-3-3-3-3-3-3-|
B-1-1-1-1-1-1-1-1-1-1-1-1-1-1-3-3-3-3-3-3-3-3-3-3-3-3-3-3-3-|
G-0-0-0-0-0-0-0-2-2-2-2-2-2-2-2-2-2-2-2-2-2-2-0-0-0-0-0-0-0-|
D-2-2-2-2-2-2-2-2-2-2-2-2-2-2-0-0-0-0-0-0-0-0-0-0-0-0-0-0-0-|
A-3-3-3-3-3-3-3-0-0-0-0-0-0-0-----------------2-2-2-2-2-2-2-|
E---------------------------------------------3-3-3-3-3-3-3-|

  C              Am            Dm              G
e-0-0-0-0-0-0-0-0-0-0-0-0-0-0-1-1-1-1-1-1-1-1-3-3-3-3-3-3-3-|
B-1-1-1-1-1-1-1-1-1-1-1-1-1-1-3-3-3-3-3-3-3-3-3-3-3-3-3-3-3-|
G-0-0-0-0-0-0-0-2-2-2-2-2-2-2-2-2-2-2-2-2-2-2-0-0-0-0-0-0-0-|
D-2-2-2-2-2-2-2-2-2-2-2-2-2-2-0-0-0-0-0-0-0-0-0-0-0-0-0-0-0-|
A-3-3-3-3-3-3-3-0-0-0-0-0-0-0-----------------2-2-2-2-2-2-2-|
E---------------------------------------------3-3-3-3-3-3-3-|

Anthony's Parts

Intro
    C       F      C       F        Fm     Em
e--8--8----8--8----8--8----8--8----8--8----7-7-|
B--8--8---10-10----8--8---10-10----9--9----8-8-|
G--9--9---10-10----9--9---10-10---10-10----9-9-|
D-10-10---10-10---10-10---10-10---10-10----9-9-|
A-10-10----8--8---10-10----8--8----8--8----7-7-|
E--8--8------------8--8------------------------|

goof around with it
  D
e-5-5-5-5-5-5-5-|
B-7-7-7-7-7-7-7-|
G-7-7-7-7-7-7-7-|
D-7-7-7-7-7-7-7-|
A-5-5-5-5-5-5-5-|
E---------------|

Verse 1

when it comes to the verse you either play Chords barred or open your choice go for comfort
  C              Am            Dm              G
e-0-0-0-0-0-0-0-0-0-0-0-0-0-0-1-1-1-1-1-1-1-1-3-3-3-3-3-3-3-|
B-1-1-1-1-1-1-1-1-1-1-1-1-1-1-3-3-3-3-3-3-3-3-3-3-3-3-3-3-3-|
G-0-0-0-0-0-0-0-2-2-2-2-2-2-2-2-2-2-2-2-2-2-2-0-0-0-0-0-0-0-|
D-2-2-2-2-2-2-2-2-2-2-2-2-2-2-0-0-0-0-0-0-0-0-0-0-0-0-0-0-0-|
A-3-3-3-3-3-3-3-0-0-0-0-0-0-0-----------------2-2-2-2-2-2-2-|
E---------------------------------------------3-3-3-3-3-3-3-|

  C              Am            Dm              G
e-0-0-0-0-0-0-0-0-0-0-0-0-0-0-1-1-1-1-1-1-1-1-3-3-3-3-3-3-3-|
B-1-1-1-1-1-1-1-1-1-1-1-1-1-1-3-3-3-3-3-3-3-3-3-3-3-3-3-3-3-|
G-0-0-0-0-0-0-0-2-2-2-2-2-2-2-2-2-2-2-2-2-2-2-0-0-0-0-0-0-0-|
D-2-2-2-2-2-2-2-2-2-2-2-2-2-2-0-0-0-0-0-0-0-0-0-0-0-0-0-0-0-|
A-3-3-3-3-3-3-3-0-0-0-0-0-0-0-----------------2-2-2-2-2-2-2-|
E---------------------------------------------3-3-3-3-3-3-3-|

  C              Am            Dm              G
e-0-0-0-0-0-0-0-0-0-0-0-0-0-0-1-1-1-1-1-1-1-1-3-3-3-3-3-3-3-|
B-1-1-1-1-1-1-1-1-1-1-1-1-1-1-3-3-3-3-3-3-3-3-3-3-3-3-3-3-3-|
G-0-0-0-0-0-0-0-2-2-2-2-2-2-2-2-2-2-2-2-2-2-2-0-0-0-0-0-0-0-|
D-2-2-2-2-2-2-2-2-2-2-2-2-2-2-0-0-0-0-0-0-0-0-0-0-0-0-0-0-0-|
A-3-3-3-3-3-3-3-0-0-0-0-0-0-0-----------------2-2-2-2-2-2-2-|
E---------------------------------------------3-3-3-3-3-3-3-|

  C              Am            Dm              G
e-0-0-0-0-0-0-0-0-0-0-0-0-0-0-1-1-1-1-1-1-1-1-3-3-3-3-3-3-3-|
B-1-1-1-1-1-1-1-1-1-1-1-1-1-1-3-3-3-3-3-3-3-3-3-3-3-3-3-3-3-|
G-0-0-0-0-0-0-0-2-2-2-2-2-2-2-2-2-2-2-2-2-2-2-0-0-0-0-0-0-0-|
D-2-2-2-2-2-2-2-2-2-2-2-2-2-2-0-0-0-0-0-0-0-0-0-0-0-0-0-0-0-|
A-3-3-3-3-3-3-3-0-0-0-0-0-0-0-----------------2-2-2-2-2-2-2-|
E---------------------------------------------3-3-3-3-3-3-3-|

Chorus
    F       C
e--8--8---8--8--8--8--8--8--8-|
B-10-10---8--8--8--8--8--8--8-|
G-10-10---9--9--9--9--9--9--9-|
D-10-10--10-10-10-10-10-10-10-|
A--8--8--10-10-10-10-10-10-10-|
E---------8--8--8--8--8--8--8-|

   F       C
e--8--8---8--8--8--8--8--8--8-|
B-10-10---8--8--8--8--8--8--8-|
G-10-10---9--9--9--9--9--9--9-|
D-10-10--10-10-10-10-10-10-10-|
A--8--8--10-10-10-10-10-10-10-|
E---------8--8--8--8--8--8--8-|
   F      G#     G
e--8--8--11-11-3-3-3-3-3-3-3-3-3-3-3-3-3-3-3-|
B-10-10--13-13-3-3-3-3-3-3-3-3-3-3-3-3-3-3-3-|
G-10-10--13-13-4-4-4-4-4-4-4-4-4-4-4-4-4-4-4-|
D-10-10--13-13-5-5-5-5-5-5-5-5-5-5-5-5-5-5-5-|
A--8--8--11-11-5-5-5-5-5-5-5-5-5-5-5-5-5-5-5-|
E--------------3-3-3-3-3-3-3-3-3-3-3-3-3-3-3-|

Verse 2

when it comes to the verse you either play Chords barred or open your choice go for comfort
  C              Am            Dm              G
e-0-0-0-0-0-0-0-0-0-0-0-0-0-0-1-1-1-1-1-1-1-1-3-3-3-3-3-3-3-|
B-1-1-1-1-1-1-1-1-1-1-1-1-1-1-3-3-3-3-3-3-3-3-3-3-3-3-3-3-3-|
G-0-0-0-0-0-0-0-2-2-2-2-2-2-2-2-2-2-2-2-2-2-2-0-0-0-0-0-0-0-|
D-2-2-2-2-2-2-2-2-2-2-2-2-2-2-0-0-0-0-0-0-0-0-0-0-0-0-0-0-0-|
A-3-3-3-3-3-3-3-0-0-0-0-0-0-0-----------------2-2-2-2-2-2-2-|
E---------------------------------------------3-3-3-3-3-3-3-|

  C              Am            Dm              G
e-0-0-0-0-0-0-0-0-0-0-0-0-0-0-1-1-1-1-1-1-1-1-3-3-3-3-3-3-3-|
B-1-1-1-1-1-1-1-1-1-1-1-1-1-1-3-3-3-3-3-3-3-3-3-3-3-3-3-3-3-|
G-0-0-0-0-0-0-0-2-2-2-2-2-2-2-2-2-2-2-2-2-2-2-0-0-0-0-0-0-0-|
D-2-2-2-2-2-2-2-2-2-2-2-2-2-2-0-0-0-0-0-0-0-0-0-0-0-0-0-0-0-|
A-3-3-3-3-3-3-3-0-0-0-0-0-0-0-----------------2-2-2-2-2-2-2-|
E---------------------------------------------3-3-3-3-3-3-3-|

  C              Am            Dm              G
e-0-0-0-0-0-0-0-0-0-0-0-0-0-0-1-1-1-1-1-1-1-1-3-3-3-3-3-3-3-|
B-1-1-1-1-1-1-1-1-1-1-1-1-1-1-3-3-3-3-3-3-3-3-3-3-3-3-3-3-3-|
G-0-0-0-0-0-0-0-2-2-2-2-2-2-2-2-2-2-2-2-2-2-2-0-0-0-0-0-0-0-|
D-2-2-2-2-2-2-2-2-2-2-2-2-2-2-0-0-0-0-0-0-0-0-0-0-0-0-0-0-0-|
A-3-3-3-3-3-3-3-0-0-0-0-0-0-0-----------------2-2-2-2-2-2-2-|
E---------------------------------------------3-3-3-3-3-3-3-|

  C              Am            Dm              G
e-0-0-0-0-0-0-0-0-0-0-0-0-0-0-1-1-1-1-1-1-1-1-3-3-3-3-3-3-3-|
B-1-1-1-1-1-1-1-1-1-1-1-1-1-1-3-3-3-3-3-3-3-3-3-3-3-3-3-3-3-|
G-0-0-0-0-0-0-0-2-2-2-2-2-2-2-2-2-2-2-2-2-2-2-0-0-0-0-0-0-0-|
D-2-2-2-2-2-2-2-2-2-2-2-2-2-2-0-0-0-0-0-0-0-0-0-0-0-0-0-0-0-|
A-3-3-3-3-3-3-3-0-0-0-0-0-0-0-----------------2-2-2-2-2-2-2-|
E---------------------------------------------3-3-3-3-3-3-3-|

Chorus
    F       C
e--8--8---8--8--8--8--8--8--8-|
B-10-10---8--8--8--8--8--8--8-|
G-10-10---9--9--9--9--9--9--9-|
D-10-10--10-10-10-10-10-10-10-|
A--8--8--10-10-10-10-10-10-10-|
E---------8--8--8--8--8--8--8-|

   F       C
e--8--8---8--8--8--8--8--8--8-|
B-10-10---8--8--8--8--8--8--8-|
G-10-10---9--9--9--9--9--9--9-|
D-10-10--10-10-10-10-10-10-10-|
A--8--8--10-10-10-10-10-10-10-|
E---------8--8--8--8--8--8--8-|
   F      G#     G
e--8--8--11-11-3-3-3-3-3-3-3-3-3-3-3-3-3-3-3-|
B-10-10--13-13-3-3-3-3-3-3-3-3-3-3-3-3-3-3-3-|
G-10-10--13-13-4-4-4-4-4-4-4-4-4-4-4-4-4-4-4-|
D-10-10--13-13-5-5-5-5-5-5-5-5-5-5-5-5-5-5-5-|
A--8--8--11-11-5-5-5-5-5-5-5-5-5-5-5-5-5-5-5-|
E--------------3-3-3-3-3-3-3-3-3-3-3-3-3-3-3-|

Break

e-8-6---------------8-6---------------8-6---------------|
B-----9-6-------8-6-----9-6-------8-6-----9-6-------8-6-|
G---------8-6-8-------------8-6-8-------------8-6-8-----|
D-------------------------------------------------------|
A-------------------------------------------------------|
E-------------------------------------------------------|

e--------------------------------------|
B-8b-8-8-8-8-8-8-8-8-8-8-8-8-8-8-8-8-8-|
G--------------------------------------|
D--------------------------------------|
A--------------------------------------|
E--------------------------------------|

Verse 3

when it comes to the verse you either play Chords barred or open your choice go for comfort
  C              Am            Dm              G
e-0-0-0-0-0-0-0-0-0-0-0-0-0-0-1-1-1-1-1-1-1-1-3-3-3-3-3-3-3-|
B-1-1-1-1-1-1-1-1-1-1-1-1-1-1-3-3-3-3-3-3-3-3-3-3-3-3-3-3-3-|
G-0-0-0-0-0-0-0-2-2-2-2-2-2-2-2-2-2-2-2-2-2-2-0-0-0-0-0-0-0-|
D-2-2-2-2-2-2-2-2-2-2-2-2-2-2-0-0-0-0-0-0-0-0-0-0-0-0-0-0-0-|
A-3-3-3-3-3-3-3-0-0-0-0-0-0-0-----------------2-2-2-2-2-2-2-|
E---------------------------------------------3-3-3-3-3-3-3-|

  C              Am            Dm              G
e-0-0-0-0-0-0-0-0-0-0-0-0-0-0-1-1-1-1-1-1-1-1-3-3-3-3-3-3-3-|
B-1-1-1-1-1-1-1-1-1-1-1-1-1-1-3-3-3-3-3-3-3-3-3-3-3-3-3-3-3-|
G-0-0-0-0-0-0-0-2-2-2-2-2-2-2-2-2-2-2-2-2-2-2-0-0-0-0-0-0-0-|
D-2-2-2-2-2-2-2-2-2-2-2-2-2-2-0-0-0-0-0-0-0-0-0-0-0-0-0-0-0-|
A-3-3-3-3-3-3-3-0-0-0-0-0-0-0-----------------2-2-2-2-2-2-2-|
E---------------------------------------------3-3-3-3-3-3-3-|


  C              Am            Dm              G
e-0-0-0-0-0-0-0-0-0-0-0-0-0-0-1-1-1-1-1-1-1-1-3-3-3-3-3-3-3-|
B-1-1-1-1-1-1-1-1-1-1-1-1-1-1-3-3-3-3-3-3-3-3-3-3-3-3-3-3-3-|
G-0-0-0-0-0-0-0-2-2-2-2-2-2-2-2-2-2-2-2-2-2-2-0-0-0-0-0-0-0-|
D-2-2-2-2-2-2-2-2-2-2-2-2-2-2-0-0-0-0-0-0-0-0-0-0-0-0-0-0-0-|
A-3-3-3-3-3-3-3-0-0-0-0-0-0-0-----------------2-2-2-2-2-2-2-|
E---------------------------------------------3-3-3-3-3-3-3-|

  C              Am            Dm              G
e-0-0-0-0-0-0-0-0-0-0-0-0-0-0-1-1-1-1-1-1-1-1-3-3-3-3-3-3-3-|
B-1-1-1-1-1-1-1-1-1-1-1-1-1-1-3-3-3-3-3-3-3-3-3-3-3-3-3-3-3-|
G-0-0-0-0-0-0-0-2-2-2-2-2-2-2-2-2-2-2-2-2-2-2-0-0-0-0-0-0-0-|
D-2-2-2-2-2-2-2-2-2-2-2-2-2-2-0-0-0-0-0-0-0-0-0-0-0-0-0-0-0-|
A-3-3-3-3-3-3-3-0-0-0-0-0-0-0-----------------2-2-2-2-2-2-2-|
E---------------------------------------------3-3-3-3-3-3-3-|

Outro

  C              Am            Dm              G
e-0-0-0-0-0-0-0-0-0-0-0-0-0-0-1-1-1-1-1-1-1-1-3-3-3-3-3-3-3-|
B-1-1-1-1-1-1-1-1-1-1-1-1-1-1-3-3-3-3-3-3-3-3-3-3-3-3-3-3-3-|
G-0-0-0-0-0-0-0-2-2-2-2-2-2-2-2-2-2-2-2-2-2-2-0-0-0-0-0-0-0-|
D-2-2-2-2-2-2-2-2-2-2-2-2-2-2-0-0-0-0-0-0-0-0-0-0-0-0-0-0-0-|
A-3-3-3-3-3-3-3-0-0-0-0-0-0-0-----------------2-2-2-2-2-2-2-|
E---------------------------------------------3-3-3-3-3-3-3-|

  C              Am            Dm              G
e-0-0-0-0-0-0-0-0-0-0-0-0-0-0-1-1-1-1-1-1-1-1-3-3-3-3-3-3-3-|
B-1-1-1-1-1-1-1-1-1-1-1-1-1-1-3-3-3-3-3-3-3-3-3-3-3-3-3-3-3-|
G-0-0-0-0-0-0-0-2-2-2-2-2-2-2-2-2-2-2-2-2-2-2-0-0-0-0-0-0-0-|
D-2-2-2-2-2-2-2-2-2-2-2-2-2-2-0-0-0-0-0-0-0-0-0-0-0-0-0-0-0-|
A-3-3-3-3-3-3-3-0-0-0-0-0-0-0-----------------2-2-2-2-2-2-2-|
E---------------------------------------------3-3-3-3-3-3-3-|

  C              Am            Dm              G
e-0-0-0-0-0-0-0-0-0-0-0-0-0-0-1-1-1-1-1-1-1-1-3-3-3-3-3-3-3-|
B-1-1-1-1-1-1-1-1-1-1-1-1-1-1-3-3-3-3-3-3-3-3-3-3-3-3-3-3-3-|
G-0-0-0-0-0-0-0-2-2-2-2-2-2-2-2-2-2-2-2-2-2-2-0-0-0-0-0-0-0-|
D-2-2-2-2-2-2-2-2-2-2-2-2-2-2-0-0-0-0-0-0-0-0-0-0-0-0-0-0-0-|
A-3-3-3-3-3-3-3-0-0-0-0-0-0-0-----------------2-2-2-2-2-2-2-|
E---------------------------------------------3-3-3-3-3-3-3-|

  C              Am            Dm              G
e-0-0-0-0-0-0-0-0-0-0-0-0-0-0-1-1-1-1-1-1-1-1-3-3-3-3-3-3-3-|
B-1-1-1-1-1-1-1-1-1-1-1-1-1-1-3-3-3-3-3-3-3-3-3-3-3-3-3-3-3-|
G-0-0-0-0-0-0-0-2-2-2-2-2-2-2-2-2-2-2-2-2-2-2-0-0-0-0-0-0-0-|
D-2-2-2-2-2-2-2-2-2-2-2-2-2-2-0-0-0-0-0-0-0-0-0-0-0-0-0-0-0-|
A-3-3-3-3-3-3-3-0-0-0-0-0-0-0-----------------2-2-2-2-2-2-2-|
E---------------------------------------------3-3-3-3-3-3-3-|

I know that youre out there
Born ready, but on the decline
To keep you from my thoughts
When we first broke the line
Do you remember like I remember?
Lost pursuits of excellence
The glory of the crowd
Lives of imperialists
Leave me with aching wrists
So no wonder you frown when youíre two world wars down
So when the dark times come well I will song you a good time song
Im pretending that itís ending but it kills me to act so strong
Just to gaze in your eyes, makes all the difference to me.
Just be ready my angel
Be ready when I call
Iíve been re reading letters
They were moving warm but bitter and I cried right through them all
Oooh ooooh
The days go so slow
Ooooh oooh
Weíll never get to heaven with the artillery in tow
So when the dark times come, it might warm your heart to know
That I went to the crossroads but the devil never showed
They can stick their war, Im leaving now
Makes all the difference to me
Iím hoping if you know where I am
Send your heart in a telegram
Iím praying that you know where I am
Be upstairs ready my angel
Be ready when I call
And then my angel Iíll be ready too and I will catch you when you fall
Do you remember like I remember
all the dirty things you said?
Do you remember like I remember
Or was it all in my head?
So when the dark times come well I will song you a good time song
Im pretending that itís ending but it kills me to act so strong
To gaze in your eyes makes all the difference to me

So
Whos got the clap
Whoís got the clap              X8
Give yourself a clap now

Im not sure on this one I think just a few mistakes or im completely wrong any corrections PM me.


Thats that folks I hope you enjoy the tab I know its messy but it does the job.
Or well I think it does ? =P

Libertines Forever!!!!!!!!!!!!!!!!!

Words and Music by Carl Barat  Anthony Rossomando  Didz Hammond  Gary Powell
Related for Waterloo To Anywhere tab